ISO-10303-21;
HEADER;
FILE_DESCRIPTION (( 'STEP AP214' ),
    '1' );
FILE_NAME ('BT6.1.STEP',
    '2021-04-21T11:40:13',
    ( '' ),
    ( '' ),
    'SwSTEP 2.0',
    'SolidWorks 2020',
    '' );
FILE_SCHEMA (( 'AUTOMOTIVE_DESIGN' ));
ENDSEC;

DATA;
#1 = ORIENTED_EDGE ( 'NONE', *, *, #93, .F. ) ;
#2 = CARTESIAN_POINT ( 'NONE',  ( -400.0000000000001705, 0.000000000000000000, -399.9999999999998863 ) ) ;
#3 = VERTEX_POINT ( 'NONE', #340 ) ;
#4 = VECTOR ( 'NONE', #67, 1000.000000000000000 ) ;
#5 = SURFACE_STYLE_USAGE ( .BOTH. , #47 ) ;
#6 = VERTEX_POINT ( 'NONE', #177 ) ;
#7 = FILL_AREA_STYLE_COLOUR ( '', #89 ) ;
#8 = VERTEX_POINT ( 'NONE', #343 ) ;
#9 = DIRECTION ( 'NONE',  ( -1.000000000000000000, 0.000000000000000000, 1.387778780781445676E-16 ) ) ;
#10 = PRODUCT_DEFINITION_FORMATION_WITH_SPECIFIED_SOURCE ( 'ANY', '', #46, .NOT_KNOWN. ) ;
#11 = VERTEX_POINT ( 'NONE', #225 ) ;
#12 = LINE ( 'NONE', #185, #17 ) ;
#13 =( NAMED_UNIT ( * ) PLANE_ANGLE_UNIT ( ) SI_UNIT ( $, .RADIAN. ) );
#14 = DIRECTION ( 'NONE',  ( 0.000000000000000000, 1.000000000000000000, 0.000000000000000000 ) ) ;
#15 = CARTESIAN_POINT ( 'NONE',  ( -369.9999999999998863, 30.00000000000000000, -369.9999999999999432 ) ) ;
#16 = DIRECTION ( 'NONE',  ( 0.000000000000000000, 0.9999246007106464829, 0.01227977579820074307 ) ) ;
#17 = VECTOR ( 'NONE', #73, 1000.000000000000000 ) ;
#18 = PLANE ( 'NONE',  #322 ) ;
#19 = CARTESIAN_POINT ( 'NONE',  ( -400.0000000000001705, 600.0000000000000000, -399.9999999999998863 ) ) ;
#20 = LINE ( 'NONE', #19, #248 ) ;
#21 = EDGE_CURVE ( 'NONE', #205, #71, #311, .T. ) ;
#22 = EDGE_CURVE ( 'NONE', #291, #212, #198, .T. ) ;
#23 = AXIS2_PLACEMENT_3D ( 'NONE', #297, #275, #114 ) ;
#24 = VECTOR ( 'NONE', #155, 1000.000000000000000 ) ;
#25 = ORIENTED_EDGE ( 'NONE', *, *, #112, .T. ) ;
#26 = FILL_AREA_STYLE ('',( #7 ) ) ;
#27 = ORIENTED_EDGE ( 'NONE', *, *, #330, .F. ) ;
#28 = PLANE ( 'NONE',  #140 ) ;
#29 = ORIENTED_EDGE ( 'NONE', *, *, #255, .F. ) ;
#30 = ADVANCED_FACE ( 'NONE', ( #245 ), #65, .F. ) ;
#31 = DIRECTION ( 'NONE',  ( 1.387778780781445676E-16, 0.000000000000000000, 1.000000000000000000 ) ) ;
#32 = ORIENTED_EDGE ( 'NONE', *, *, #115, .F. ) ;
#33 = PLANE ( 'NONE',  #273 ) ;
#34 = UNCERTAINTY_MEASURE_WITH_UNIT (LENGTH_MEASURE( 1.000000000000000082E-05 ), #137, 'distance_accuracy_value', 'NONE');
#35 = VECTOR ( 'NONE', #119, 1000.000000000000000 ) ;
#36 = ORIENTED_EDGE ( 'NONE', *, *, #330, .T. ) ;
#37 = CARTESIAN_POINT ( 'NONE',  ( 370.0000000000000000, 30.00000000000000000, -369.9999999999998863 ) ) ;
#38 = CARTESIAN_POINT ( 'NONE',  ( 376.9999999999998295, 600.0000000000000000, -376.9999999999999432 ) ) ;
#39 = CARTESIAN_POINT ( 'NONE',  ( -400.0000000000001705, 600.0000000000000000, -399.9999999999998863 ) ) ;
#40 = PRESENTATION_STYLE_ASSIGNMENT (( #219 ) ) ;
#41 = LINE ( 'NONE', #38, #244 ) ;
#42 = VECTOR ( 'NONE', #240, 1000.000000000000000 ) ;
#43 = FACE_OUTER_BOUND ( 'NONE', #159, .T. ) ;
#44 =( NAMED_UNIT ( * ) PLANE_ANGLE_UNIT ( ) SI_UNIT ( $, .RADIAN. ) );
#45 = ORIENTED_EDGE ( 'NONE', *, *, #157, .F. ) ;
#46 = PRODUCT ( 'BT6.1', 'BT6.1', '', ( #339 ) ) ;
#47 = SURFACE_SIDE_STYLE ('',( #206 ) ) ;
#48 = ORIENTED_EDGE ( 'NONE', *, *, #199, .F. ) ;
#49 = DIRECTION ( 'NONE',  ( 0.000000000000000000, 0.000000000000000000, -1.000000000000000000 ) ) ;
#50 = VERTEX_POINT ( 'NONE', #129 ) ;
#51 = MANIFOLD_SOLID_BREP ( 'Cut-Loft1', #147 ) ;
#52 = ORIENTED_EDGE ( 'NONE', *, *, #93, .T. ) ;
#53 = EDGE_CURVE ( 'NONE', #8, #342, #77, .T. ) ;
#54 = DIRECTION ( 'NONE',  ( 1.472444329741587192E-16, 0.000000000000000000, 1.000000000000000000 ) ) ;
#55 = ORIENTED_EDGE ( 'NONE', *, *, #197, .T. ) ;
#56 = PLANE ( 'NONE',  #80 ) ;
#57 = ORIENTED_EDGE ( 'NONE', *, *, #207, .F. ) ;
#58 = CARTESIAN_POINT ( 'NONE',  ( -400.0000000000001705, 600.0000000000000000, -399.9999999999998863 ) ) ;
#59 = DIRECTION ( 'NONE',  ( 1.387778780781445676E-16, 0.000000000000000000, 1.000000000000000000 ) ) ;
#60 = VECTOR ( 'NONE', #152, 1000.000000000000000 ) ;
#61 = ORIENTED_EDGE ( 'NONE', *, *, #188, .T. ) ;
#62 = LINE ( 'NONE', #328, #287 ) ;
#63 = CARTESIAN_POINT ( 'NONE',  ( 370.0000000000000000, 30.00000000000000000, 370.0000000000001705 ) ) ;
#64 = CARTESIAN_POINT ( 'NONE',  ( -369.9999999999998863, 30.00000000000000000, -369.9999999999999432 ) ) ;
#65 = PLANE ( 'NONE',  #230 ) ;
#66 = LINE ( 'NONE', #63, #264 ) ;
#67 = DIRECTION ( 'NONE',  ( -0.000000000000000000, -1.000000000000000000, -0.000000000000000000 ) ) ;
#68 = PRESENTATION_LAYER_ASSIGNMENT (  '', '', ( #324 ) ) ;
#69 = PRESENTATION_LAYER_ASSIGNMENT (  '', '', ( #226 ) ) ;
#70 = LINE ( 'NONE', #179, #60 ) ;
#71 = VERTEX_POINT ( 'NONE', #2 ) ;
#72 = ADVANCED_FACE ( 'NONE', ( #259 ), #56, .T. ) ;
#73 = DIRECTION ( 'NONE',  ( -1.000000000000000000, -0.000000000000000000, -2.250452076942885066E-16 ) ) ;
#74 = ORIENTED_EDGE ( 'NONE', *, *, #157, .T. ) ;
#75 = LINE ( 'NONE', #263, #142 ) ;
#76 = EDGE_LOOP ( 'NONE', ( #57, #25, #317, #55 ) ) ;
#77 = LINE ( 'NONE', #150, #24 ) ;
#78 = AXIS2_PLACEMENT_3D ( 'NONE', #110, #49, #158 ) ;
#79 = ORIENTED_EDGE ( 'NONE', *, *, #292, .F. ) ;
#80 = AXIS2_PLACEMENT_3D ( 'NONE', #238, #81, #282 ) ;
#81 = DIRECTION ( 'NONE',  ( 2.208499962728267799E-16, 0.01227977579820064592, 0.9999246007106465939 ) ) ;
#82 = ORIENTED_EDGE ( 'NONE', *, *, #320, .T. ) ;
#83 = DIRECTION ( 'NONE',  ( 0.01227885005143333243, 0.9998492184738799748, 0.01227885005143343304 ) ) ;
#84 = LINE ( 'NONE', #15, #109 ) ;
#85 = EDGE_LOOP ( 'NONE', ( #74, #111, #124, #133 ) ) ;
#86 = EDGE_CURVE ( 'NONE', #107, #3, #102, .T. ) ;
#87 = LINE ( 'NONE', #333, #94 ) ;
#88 = APPLICATION_PROTOCOL_DEFINITION ( 'draft international standard', 'automotive_design', 1998, #236 ) ;
#89 = COLOUR_RGB ( '',0.7921568627450980005, 0.8196078431372548767, 0.9333333333333333481 ) ;
#90 = FACE_OUTER_BOUND ( 'NONE', #128, .T. ) ;
#91 = PLANE ( 'NONE',  #337 ) ;
#92 = DIRECTION ( 'NONE',  ( -1.387778780781445676E-16, 0.000000000000000000, -1.000000000000000000 ) ) ;
#93 = EDGE_CURVE ( 'NONE', #105, #71, #108, .T. ) ;
#94 = VECTOR ( 'NONE', #301, 1000.000000000000000 ) ;
#95 = ADVANCED_BREP_SHAPE_REPRESENTATION ( 'BT6.1', ( #51, #314 ), #149 ) ;
#96 = DIRECTION ( 'NONE',  ( -0.000000000000000000, -1.000000000000000000, -0.000000000000000000 ) ) ;
#97 = EDGE_LOOP ( 'NONE', ( #187, #208, #122, #239 ) ) ;
#98 =( GEOMETRIC_REPRESENTATION_CONTEXT ( 3 ) GLOBAL_UNCERTAINTY_ASSIGNED_CONTEXT ( ( #254 ) ) GLOBAL_UNIT_ASSIGNED_CONTEXT ( ( #228, #233, #318 ) ) REPRESENTATION_CONTEXT ( 'NONE', 'WORKASPACE' ) );
#99 = MECHANICAL_DESIGN_GEOMETRIC_PRESENTATION_REPRESENTATION (  '', ( #324 ), #252 ) ;
#100 = ORIENTED_EDGE ( 'NONE', *, *, #21, .F. ) ;
#101 = ORIENTED_EDGE ( 'NONE', *, *, #199, .T. ) ;
#102 = LINE ( 'NONE', #160, #154 ) ;
#103 = VERTEX_POINT ( 'NONE', #132 ) ;
#104 = CARTESIAN_POINT ( 'NONE',  ( -400.0000000000001705, 0.000000000000000000, -399.9999999999998863 ) ) ;
#105 = VERTEX_POINT ( 'NONE', #253 ) ;
#106 = DIRECTION ( 'NONE',  ( -1.000000000000000000, -0.000000000000000000, -0.000000000000000000 ) ) ;
#107 = VERTEX_POINT ( 'NONE', #181 ) ;
#108 = LINE ( 'NONE', #104, #237 ) ;
#109 = VECTOR ( 'NONE', #302, 1000.000000000000000 ) ;
#110 = CARTESIAN_POINT ( 'NONE',  ( -400.0000000000000568, 600.0000000000000000, 400.0000000000001137 ) ) ;
#111 = ORIENTED_EDGE ( 'NONE', *, *, #22, .F. ) ;
#112 = EDGE_CURVE ( 'NONE', #6, #103, #12, .T. ) ;
#113 = CARTESIAN_POINT ( 'NONE',  ( -369.5758411319930588, -4.538650680568412810, 5.441798516842808879E-14 ) ) ;
#114 = DIRECTION ( 'NONE',  ( 1.000000000000000000, 0.000000000000000000, -0.000000000000000000 ) ) ;
#115 = EDGE_CURVE ( 'NONE', #8, #120, #210, .T. ) ;
#116 = CARTESIAN_POINT ( 'NONE',  ( -370.0000000000000000, 30.00000000000000000, 370.0000000000000000 ) ) ;
#117 = PLANE ( 'NONE',  #23 ) ;
#118 = DIRECTION ( 'NONE',  ( 0.000000000000000000, -0.000000000000000000, 1.000000000000000000 ) ) ;
#119 = DIRECTION ( 'NONE',  ( -0.000000000000000000, -0.000000000000000000, 1.000000000000000000 ) ) ;
#120 = VERTEX_POINT ( 'NONE', #284 ) ;
#121 = VECTOR ( 'NONE', #143, 1000.000000000000227 ) ;
#122 = ORIENTED_EDGE ( 'NONE', *, *, #312, .F. ) ;
#123 = ADVANCED_FACE ( 'NONE', ( #127 ), #231, .F. ) ;
#124 = ORIENTED_EDGE ( 'NONE', *, *, #307, .F. ) ;
#125 = EDGE_LOOP ( 'NONE', ( #258, #180, #215, #27 ) ) ;
#126 = ORIENTED_EDGE ( 'NONE', *, *, #86, .T. ) ;
#127 = FACE_OUTER_BOUND ( 'NONE', #97, .T. ) ;
#128 = EDGE_LOOP ( 'NONE', ( #203, #260, #234, #293 ) ) ;
#129 = CARTESIAN_POINT ( 'NONE',  ( -369.9999999999998863, 30.00000000000000000, -369.9999999999999432 ) ) ;
#130 = ORIENTED_EDGE ( 'NONE', *, *, #188, .F. ) ;
#131 = CARTESIAN_POINT ( 'NONE',  ( 0.000000000000000000, 30.00000000000000000, 0.000000000000000000 ) ) ;
#132 = CARTESIAN_POINT ( 'NONE',  ( -370.0000000000000000, 30.00000000000000000, 370.0000000000000000 ) ) ;
#133 = ORIENTED_EDGE ( 'NONE', *, *, #21, .T. ) ;
#134 = LINE ( 'NONE', #274, #121 ) ;
#135 = DIRECTION ( 'NONE',  ( -1.387778780781445676E-16, -0.000000000000000000, -1.000000000000000000 ) ) ;
#136 = CARTESIAN_POINT ( 'NONE',  ( 2.720899258421404755E-14, -4.538650680568269813, 369.5758411319931724 ) ) ;
#137 =( LENGTH_UNIT ( ) NAMED_UNIT ( * ) SI_UNIT ( .MILLI., .METRE. ) );
#138 = LINE ( 'NONE', #116, #211 ) ;
#139 = APPLICATION_CONTEXT ( 'automotive_design' ) ;
#140 = AXIS2_PLACEMENT_3D ( 'NONE', #39, #242, #92 ) ;
#141 = LINE ( 'NONE', #223, #281 ) ;
#142 = VECTOR ( 'NONE', #235, 1000.000000000000000 ) ;
#143 = DIRECTION ( 'NONE',  ( 0.01227885005143333243, 0.9998492184738799748, -0.01227885005143372447 ) ) ;
#144 = CARTESIAN_POINT ( 'NONE',  ( 369.5758411319930019, -4.538650680568230733, 0.000000000000000000 ) ) ;
#145 = FILL_AREA_STYLE ('',( #191 ) ) ;
#146 = EDGE_CURVE ( 'NONE', #285, #315, #75, .T. ) ;
#147 = CLOSED_SHELL ( 'NONE', ( #266, #30, #294, #172, #123, #272, #148, #174, #176, #310, #72 ) ) ;
#148 = ADVANCED_FACE ( 'NONE', ( #261 ), #33, .T. ) ;
#149 =( GEOMETRIC_REPRESENTATION_CONTEXT ( 3 ) GLOBAL_UNCERTAINTY_ASSIGNED_CONTEXT ( ( #296 ) ) GLOBAL_UNIT_ASSIGNED_CONTEXT ( ( #304, #13, #217 ) ) REPRESENTATION_CONTEXT ( 'NONE', 'WORKASPACE' ) );
#150 = CARTESIAN_POINT ( 'NONE',  ( 399.9999999999999432, 600.0000000000000000, 400.0000000000001137 ) ) ;
#151 = EDGE_LOOP ( 'NONE', ( #232, #186, #61, #229 ) ) ;
#152 = DIRECTION ( 'NONE',  ( 1.387778780781445676E-16, 0.000000000000000000, 1.000000000000000000 ) ) ;
#153 = EDGE_LOOP ( 'NONE', ( #79, #321, #45, #1 ) ) ;
#154 = VECTOR ( 'NONE', #54, 1000.000000000000000 ) ;
#155 = DIRECTION ( 'NONE',  ( -0.000000000000000000, -1.000000000000000000, -0.000000000000000000 ) ) ;
#156 = ORIENTED_EDGE ( 'NONE', *, *, #146, .T. ) ;
#157 = EDGE_CURVE ( 'NONE', #71, #212, #70, .T. ) ;
#158 = DIRECTION ( 'NONE',  ( -1.000000000000000000, 0.000000000000000000, -0.000000000000000000 ) ) ;
#159 = EDGE_LOOP ( 'NONE', ( #130, #82, #329, #156 ) ) ;
#160 = CARTESIAN_POINT ( 'NONE',  ( -377.0000000000002274, 600.0000000000000000, -376.9999999999997726 ) ) ;
#161 = DIRECTION ( 'NONE',  ( 0.000000000000000000, 1.000000000000000000, 0.000000000000000000 ) ) ;
#162 = CARTESIAN_POINT ( 'NONE',  ( 399.9999999999999432, 0.000000000000000000, 400.0000000000001137 ) ) ;
#163 = PLANE ( 'NONE',  #209 ) ;
#164 = CARTESIAN_POINT ( 'NONE',  ( 399.9999999999998295, 0.000000000000000000, -399.9999999999998863 ) ) ;
#165 = DIRECTION ( 'NONE',  ( -7.361666542427559742E-17, 0.01227977579820074480, -0.9999246007106465939 ) ) ;
#166 = LINE ( 'NONE', #241, #35 ) ;
#167 = CARTESIAN_POINT ( 'NONE',  ( 399.9999999999998295, 600.0000000000000000, -399.9999999999998863 ) ) ;
#168 = FACE_OUTER_BOUND ( 'NONE', #76, .T. ) ;
#169 = AXIS2_PLACEMENT_3D ( 'NONE', #295, #161, #265 ) ;
#170 = CARTESIAN_POINT ( 'NONE',  ( -400.0000000000001705, 600.0000000000000000, -399.9999999999998863 ) ) ;
#171 = AXIS2_PLACEMENT_3D ( 'NONE', #113, #192, #213 ) ;
#172 = ADVANCED_FACE ( 'NONE', ( #257 ), #28, .F. ) ;
#173 = CARTESIAN_POINT ( 'NONE',  ( -400.0000000000000568, 600.0000000000000000, 400.0000000000001137 ) ) ;
#174 = ADVANCED_FACE ( 'NONE', ( #168 ), #163, .T. ) ;
#175 = CARTESIAN_POINT ( 'NONE',  ( 0.000000000000000000, 0.000000000000000000, 0.000000000000000000 ) ) ;
#176 = ADVANCED_FACE ( 'NONE', ( #194 ), #218, .T. ) ;
#177 = CARTESIAN_POINT ( 'NONE',  ( 370.0000000000000000, 30.00000000000000000, 370.0000000000001705 ) ) ;
#178 = ORIENTED_EDGE ( 'NONE', *, *, #341, .T. ) ;
#179 = CARTESIAN_POINT ( 'NONE',  ( -400.0000000000001705, 0.000000000000000000, -399.9999999999998863 ) ) ;
#180 = ORIENTED_EDGE ( 'NONE', *, *, #320, .F. ) ;
#181 = CARTESIAN_POINT ( 'NONE',  ( -377.0000000000001705, 600.0000000000000000, -376.9999999999997726 ) ) ;
#182 = EDGE_LOOP ( 'NONE', ( #286, #202, #279, #29 ) ) ;
#183 = ORIENTED_EDGE ( 'NONE', *, *, #292, .T. ) ;
#184 = VECTOR ( 'NONE', #196, 1000.000000000000227 ) ;
#185 = CARTESIAN_POINT ( 'NONE',  ( -370.0000000000000000, 30.00000000000000000, 370.0000000000000000 ) ) ;
#186 = ORIENTED_EDGE ( 'NONE', *, *, #277, .T. ) ;
#187 = ORIENTED_EDGE ( 'NONE', *, *, #288, .T. ) ;
#188 = EDGE_CURVE ( 'NONE', #11, #315, #134, .T. ) ;
#189 = CARTESIAN_POINT ( 'NONE',  ( 0.000000000000000000, 600.0000000000000000, 0.000000000000000000 ) ) ;
#190 = DIRECTION ( 'NONE',  ( -0.01227885005143381988, 0.9998492184738799748, 0.01227885005143381988 ) ) ;
#191 = FILL_AREA_STYLE_COLOUR ( '', #276 ) ;
#192 = DIRECTION ( 'NONE',  ( 0.9999246007106465939, 0.01227977579820113165, -1.472333308485512195E-16 ) ) ;
#193 = CARTESIAN_POINT ( 'NONE',  ( 376.9999999999998295, 600.0000000000000000, -376.9999999999998295 ) ) ;
#194 = FACE_OUTER_BOUND ( 'NONE', #326, .T. ) ;
#195 = CARTESIAN_POINT ( 'NONE',  ( -400.0000000000000568, 600.0000000000000000, 400.0000000000001137 ) ) ;
#196 = DIRECTION ( 'NONE',  ( -0.01227885005143421020, 0.9998492184738799748, -0.01227885005143333243 ) ) ;
#197 = EDGE_CURVE ( 'NONE', #3, #285, #87, .T. ) ;
#198 = LINE ( 'NONE', #173, #4 ) ;
#199 = EDGE_CURVE ( 'NONE', #120, #105, #331, .T. ) ;
#200 =( NAMED_UNIT ( * ) SI_UNIT ( $, .STERADIAN. ) SOLID_ANGLE_UNIT ( ) );
#201 = VECTOR ( 'NONE', #290, 1000.000000000000000 ) ;
#202 = ORIENTED_EDGE ( 'NONE', *, *, #197, .F. ) ;
#203 = ORIENTED_EDGE ( 'NONE', *, *, #115, .T. ) ;
#204 = CARTESIAN_POINT ( 'NONE',  ( 399.9999999999998295, 600.0000000000000000, -399.9999999999998863 ) ) ;
#205 = VERTEX_POINT ( 'NONE', #58 ) ;
#206 = SURFACE_STYLE_FILL_AREA ( #26 ) ;
#207 = EDGE_CURVE ( 'NONE', #6, #285, #66, .T. ) ;
#208 = ORIENTED_EDGE ( 'NONE', *, *, #53, .F. ) ;
#209 = AXIS2_PLACEMENT_3D ( 'NONE', #136, #165, #16 ) ;
#210 = LINE ( 'NONE', #204, #201 ) ;
#211 = VECTOR ( 'NONE', #190, 1000.000000000000227 ) ;
#212 = VERTEX_POINT ( 'NONE', #270 ) ;
#213 = DIRECTION ( 'NONE',  ( -0.01227977579820112991, 0.9999246007106464829, 0.000000000000000000 ) ) ;
#214 = LINE ( 'NONE', #170, #251 ) ;
#215 = ORIENTED_EDGE ( 'NONE', *, *, #277, .F. ) ;
#216 = LINE ( 'NONE', #37, #42 ) ;
#217 =( NAMED_UNIT ( * ) SI_UNIT ( $, .STERADIAN. ) SOLID_ANGLE_UNIT ( ) );
#218 = PLANE ( 'NONE',  #171 ) ;
#219 = SURFACE_STYLE_USAGE ( .BOTH. , #269 ) ;
#220 = FACE_OUTER_BOUND ( 'NONE', #153, .T. ) ;
#221 = EDGE_CURVE ( 'NONE', #103, #3, #138, .T. ) ;
#222 = LINE ( 'NONE', #64, #184 ) ;
#223 = CARTESIAN_POINT ( 'NONE',  ( -400.0000000000000568, 600.0000000000000000, 400.0000000000001137 ) ) ;
#224 = DIRECTION ( 'NONE',  ( 0.000000000000000000, 0.000000000000000000, 1.000000000000000000 ) ) ;
#225 = CARTESIAN_POINT ( 'NONE',  ( 370.0000000000000000, 30.00000000000000000, -369.9999999999998863 ) ) ;
#226 = STYLED_ITEM ( 'NONE', ( #316 ), #51 ) ;
#227 = ORIENTED_EDGE ( 'NONE', *, *, #53, .T. ) ;
#228 =( LENGTH_UNIT ( ) NAMED_UNIT ( * ) SI_UNIT ( .MILLI., .METRE. ) );
#229 = ORIENTED_EDGE ( 'NONE', *, *, #255, .T. ) ;
#230 = AXIS2_PLACEMENT_3D ( 'NONE', #167, #9, #31 ) ;
#231 = PLANE ( 'NONE',  #78 ) ;
#232 = ORIENTED_EDGE ( 'NONE', *, *, #341, .F. ) ;
#233 =( NAMED_UNIT ( * ) PLANE_ANGLE_UNIT ( ) SI_UNIT ( $, .RADIAN. ) );
#234 = ORIENTED_EDGE ( 'NONE', *, *, #307, .T. ) ;
#235 = DIRECTION ( 'NONE',  ( 0.000000000000000000, 0.000000000000000000, -1.000000000000000000 ) ) ;
#236 = APPLICATION_CONTEXT ( 'automotive_design' ) ;
#237 = VECTOR ( 'NONE', #106, 1000.000000000000000 ) ;
#238 = CARTESIAN_POINT ( 'NONE',  ( -8.162697775264210163E-14, -4.538650680568232509, -369.5758411319930019 ) ) ;
#239 = ORIENTED_EDGE ( 'NONE', *, *, #22, .T. ) ;
#240 = DIRECTION ( 'NONE',  ( 1.000000000000000000, -0.000000000000000000, 7.501506923142950630E-17 ) ) ;
#241 = CARTESIAN_POINT ( 'NONE',  ( 370.0000000000000000, 30.00000000000000000, 370.0000000000001705 ) ) ;
#242 = DIRECTION ( 'NONE',  ( 1.000000000000000000, 0.000000000000000000, -1.387778780781445676E-16 ) ) ;
#243 = PRODUCT_RELATED_PRODUCT_CATEGORY ( 'part', '', ( #46 ) ) ;
#244 = VECTOR ( 'NONE', #246, 1000.000000000000000 ) ;
#245 = FACE_OUTER_BOUND ( 'NONE', #319, .T. ) ;
#246 = DIRECTION ( 'NONE',  ( -1.000000000000000000, 0.000000000000000000, 2.208666494612380419E-16 ) ) ;
#247 = FACE_OUTER_BOUND ( 'NONE', #283, .T. ) ;
#248 = VECTOR ( 'NONE', #59, 1000.000000000000000 ) ;
#249 = DIRECTION ( 'NONE',  ( -0.9999246007106465939, 0.01227977579820064245, 0.000000000000000000 ) ) ;
#250 = DIRECTION ( 'NONE',  ( 1.000000000000000000, 0.000000000000000000, 0.000000000000000000 ) ) ;
#251 = VECTOR ( 'NONE', #306, 1000.000000000000000 ) ;
#252 =( GEOMETRIC_REPRESENTATION_CONTEXT ( 3 ) GLOBAL_UNCERTAINTY_ASSIGNED_CONTEXT ( ( #34 ) ) GLOBAL_UNIT_ASSIGNED_CONTEXT ( ( #137, #44, #200 ) ) REPRESENTATION_CONTEXT ( 'NONE', 'WORKASPACE' ) );
#253 = CARTESIAN_POINT ( 'NONE',  ( 399.9999999999998295, 0.000000000000000000, -399.9999999999998863 ) ) ;
#254 = UNCERTAINTY_MEASURE_WITH_UNIT (LENGTH_MEASURE( 1.000000000000000082E-05 ), #228, 'distance_accuracy_value', 'NONE');
#255 = EDGE_CURVE ( 'NONE', #315, #107, #41, .T. ) ;
#256 = ORIENTED_EDGE ( 'NONE', *, *, #299, .F. ) ;
#257 = FACE_OUTER_BOUND ( 'NONE', #85, .T. ) ;
#258 = ORIENTED_EDGE ( 'NONE', *, *, #112, .F. ) ;
#259 = FACE_OUTER_BOUND ( 'NONE', #151, .T. ) ;
#260 = ORIENTED_EDGE ( 'NONE', *, *, #299, .T. ) ;
#261 = FACE_OUTER_BOUND ( 'NONE', #125, .T. ) ;
#262 = ORIENTED_EDGE ( 'NONE', *, *, #221, .F. ) ;
#263 = CARTESIAN_POINT ( 'NONE',  ( 376.9999999999998295, 600.0000000000000000, 377.0000000000000568 ) ) ;
#264 = VECTOR ( 'NONE', #83, 1000.000000000000227 ) ;
#265 = DIRECTION ( 'NONE',  ( 0.000000000000000000, -0.000000000000000000, 1.000000000000000000 ) ) ;
#266 = ADVANCED_FACE ( 'NONE', ( #90, #268 ), #18, .T. ) ;
#267 = LINE ( 'NONE', #164, #305 ) ;
#268 = FACE_BOUND ( 'NONE', #182, .T. ) ;
#269 = SURFACE_SIDE_STYLE ('',( #271 ) ) ;
#270 = CARTESIAN_POINT ( 'NONE',  ( -400.0000000000000568, 0.000000000000000000, 400.0000000000001137 ) ) ;
#271 = SURFACE_STYLE_FILL_AREA ( #145 ) ;
#272 = ADVANCED_FACE ( 'NONE', ( #220 ), #334, .F. ) ;
#273 = AXIS2_PLACEMENT_3D ( 'NONE', #131, #325, #313 ) ;
#274 = CARTESIAN_POINT ( 'NONE',  ( 370.0000000000000000, 30.00000000000000000, -369.9999999999998863 ) ) ;
#275 = DIRECTION ( 'NONE',  ( 0.000000000000000000, 0.000000000000000000, 1.000000000000000000 ) ) ;
#276 = COLOUR_RGB ( '',0.7921568627450980005, 0.8196078431372548767, 0.9333333333333333481 ) ;
#277 = EDGE_CURVE ( 'NONE', #50, #11, #216, .T. ) ;
#278 = SHAPE_DEFINITION_REPRESENTATION ( #280, #95 ) ;
#279 = ORIENTED_EDGE ( 'NONE', *, *, #86, .F. ) ;
#280 = PRODUCT_DEFINITION_SHAPE ( 'NONE', 'NONE',  #308 ) ;
#281 = VECTOR ( 'NONE', #335, 1000.000000000000000 ) ;
#282 = DIRECTION ( 'NONE',  ( 0.000000000000000000, -0.9999246007106464829, 0.01227977579820064419 ) ) ;
#283 = EDGE_LOOP ( 'NONE', ( #52, #100, #256, #101 ) ) ;
#284 = CARTESIAN_POINT ( 'NONE',  ( 399.9999999999998295, 600.0000000000000000, -399.9999999999998863 ) ) ;
#285 = VERTEX_POINT ( 'NONE', #298 ) ;
#286 = ORIENTED_EDGE ( 'NONE', *, *, #146, .F. ) ;
#287 = VECTOR ( 'NONE', #336, 1000.000000000000000 ) ;
#288 = EDGE_CURVE ( 'NONE', #212, #342, #62, .T. ) ;
#289 = MECHANICAL_DESIGN_GEOMETRIC_PRESENTATION_REPRESENTATION (  '', ( #226 ), #98 ) ;
#290 = DIRECTION ( 'NONE',  ( -1.387778780781445676E-16, -0.000000000000000000, -1.000000000000000000 ) ) ;
#291 = VERTEX_POINT ( 'NONE', #195 ) ;
#292 = EDGE_CURVE ( 'NONE', #342, #105, #267, .T. ) ;
#293 = ORIENTED_EDGE ( 'NONE', *, *, #312, .T. ) ;
#294 = ADVANCED_FACE ( 'NONE', ( #247 ), #117, .F. ) ;
#295 = CARTESIAN_POINT ( 'NONE',  ( 0.000000000000000000, 0.000000000000000000, 0.000000000000000000 ) ) ;
#296 = UNCERTAINTY_MEASURE_WITH_UNIT (LENGTH_MEASURE( 1.000000000000000082E-05 ), #304, 'distance_accuracy_value', 'NONE');
#297 = CARTESIAN_POINT ( 'NONE',  ( -400.0000000000001705, 600.0000000000000000, -399.9999999999998863 ) ) ;
#298 = CARTESIAN_POINT ( 'NONE',  ( 376.9999999999998295, 600.0000000000000000, 377.0000000000000568 ) ) ;
#299 = EDGE_CURVE ( 'NONE', #120, #205, #214, .T. ) ;
#300 = DIRECTION ( 'NONE',  ( -0.01227977579820064072, -0.9999246007106464829, 0.000000000000000000 ) ) ;
#301 = DIRECTION ( 'NONE',  ( 1.000000000000000000, 0.000000000000000000, -7.362221648707934729E-17 ) ) ;
#302 = DIRECTION ( 'NONE',  ( 1.500301384628589880E-16, -0.000000000000000000, -1.000000000000000000 ) ) ;
#303 = CARTESIAN_POINT ( 'NONE',  ( 399.9999999999998295, 600.0000000000000000, -399.9999999999998863 ) ) ;
#304 =( LENGTH_UNIT ( ) NAMED_UNIT ( * ) SI_UNIT ( .MILLI., .METRE. ) );
#305 = VECTOR ( 'NONE', #135, 1000.000000000000000 ) ;
#306 = DIRECTION ( 'NONE',  ( -1.000000000000000000, -0.000000000000000000, -0.000000000000000000 ) ) ;
#307 = EDGE_CURVE ( 'NONE', #205, #291, #20, .T. ) ;
#308 = PRODUCT_DEFINITION ( 'UNKNOWN', '', #10, #332 ) ;
#309 = APPLICATION_PROTOCOL_DEFINITION ( 'draft international standard', 'automotive_design', 1998, #139 ) ;
#310 = ADVANCED_FACE ( 'NONE', ( #43 ), #91, .T. ) ;
#311 = LINE ( 'NONE', #338, #323 ) ;
#312 = EDGE_CURVE ( 'NONE', #291, #8, #141, .T. ) ;
#313 = DIRECTION ( 'NONE',  ( 0.000000000000000000, -0.000000000000000000, 1.000000000000000000 ) ) ;
#314 = AXIS2_PLACEMENT_3D ( 'NONE', #175, #224, #250 ) ;
#315 = VERTEX_POINT ( 'NONE', #193 ) ;
#316 = PRESENTATION_STYLE_ASSIGNMENT (( #5 ) ) ;
#317 = ORIENTED_EDGE ( 'NONE', *, *, #221, .T. ) ;
#318 =( NAMED_UNIT ( * ) SI_UNIT ( $, .STERADIAN. ) SOLID_ANGLE_UNIT ( ) );
#319 = EDGE_LOOP ( 'NONE', ( #183, #48, #32, #227 ) ) ;
#320 = EDGE_CURVE ( 'NONE', #11, #6, #166, .T. ) ;
#321 = ORIENTED_EDGE ( 'NONE', *, *, #288, .F. ) ;
#322 = AXIS2_PLACEMENT_3D ( 'NONE', #189, #14, #118 ) ;
#323 = VECTOR ( 'NONE', #96, 1000.000000000000000 ) ;
#324 = STYLED_ITEM ( 'NONE', ( #40 ), #95 ) ;
#325 = DIRECTION ( 'NONE',  ( -0.000000000000000000, 1.000000000000000000, 0.000000000000000000 ) ) ;
#326 = EDGE_LOOP ( 'NONE', ( #262, #36, #178, #126 ) ) ;
#327 = DIRECTION ( 'NONE',  ( -0.000000000000000000, -1.000000000000000000, -0.000000000000000000 ) ) ;
#328 = CARTESIAN_POINT ( 'NONE',  ( -400.0000000000000568, 0.000000000000000000, 400.0000000000001137 ) ) ;
#329 = ORIENTED_EDGE ( 'NONE', *, *, #207, .T. ) ;
#330 = EDGE_CURVE ( 'NONE', #103, #50, #84, .T. ) ;
#331 = LINE ( 'NONE', #303, #344 ) ;
#332 = PRODUCT_DEFINITION_CONTEXT ( 'detailed design', #139, 'design' ) ;
#333 = CARTESIAN_POINT ( 'NONE',  ( -377.0000000000001137, 600.0000000000000000, 377.0000000000001137 ) ) ;
#334 = PLANE ( 'NONE',  #169 ) ;
#335 = DIRECTION ( 'NONE',  ( 1.000000000000000000, 0.000000000000000000, 0.000000000000000000 ) ) ;
#336 = DIRECTION ( 'NONE',  ( 1.000000000000000000, 0.000000000000000000, 0.000000000000000000 ) ) ;
#337 = AXIS2_PLACEMENT_3D ( 'NONE', #144, #249, #300 ) ;
#338 = CARTESIAN_POINT ( 'NONE',  ( -400.0000000000001705, 600.0000000000000000, -399.9999999999998863 ) ) ;
#339 = PRODUCT_CONTEXT ( 'NONE', #236, 'mechanical' ) ;
#340 = CARTESIAN_POINT ( 'NONE',  ( -377.0000000000001137, 600.0000000000000000, 377.0000000000001137 ) ) ;
#341 = EDGE_CURVE ( 'NONE', #50, #107, #222, .T. ) ;
#342 = VERTEX_POINT ( 'NONE', #162 ) ;
#343 = CARTESIAN_POINT ( 'NONE',  ( 399.9999999999999432, 600.0000000000000000, 400.0000000000001137 ) ) ;
#344 = VECTOR ( 'NONE', #327, 1000.000000000000000 ) ;
ENDSEC;
END-ISO-10303-21;
