ISO-10303-21;
HEADER;
FILE_DESCRIPTION (( 'STEP AP214' ),
    '1' );
FILE_NAME ('Barro BR1.STEP',
    '2021-04-21T11:52:12',
    ( '' ),
    ( '' ),
    'SwSTEP 2.0',
    'SolidWorks 2020',
    '' );
FILE_SCHEMA (( 'AUTOMOTIVE_DESIGN' ));
ENDSEC;

DATA;
#1 = ORIENTED_EDGE ( 'NONE', *, *, #68, .F. ) ;
#2 = FILL_AREA_STYLE ('',( #109 ) ) ;
#3 = CARTESIAN_POINT ( 'NONE',  ( 0.000000000000000000, 700.0000000000002274, 0.000000000000000000 ) ) ;
#4 = STYLED_ITEM ( 'NONE', ( #125 ), #252 ) ;
#5 = EDGE_LOOP ( 'NONE', ( #283, #105 ) ) ;
#6 = EDGE_CURVE ( 'NONE', #63, #61, #92, .T. ) ;
#7 = UNCERTAINTY_MEASURE_WITH_UNIT (LENGTH_MEASURE( 1.000000000000000082E-05 ), #218, 'distance_accuracy_value', 'NONE');
#8 = VERTEX_POINT ( 'NONE', #231 ) ;
#9 = DIRECTION ( 'NONE',  ( 0.000000000000000000, 0.000000000000000000, 1.000000000000000000 ) ) ;
#10 = CARTESIAN_POINT ( 'NONE',  ( 0.000000000000000000, 0.000000000000000000, 0.000000000000000000 ) ) ;
#11 = DIRECTION ( 'NONE',  ( 0.000000000000000000, 0.000000000000000000, 1.000000000000000000 ) ) ;
#12 = DIRECTION ( 'NONE',  ( -0.000000000000000000, 1.000000000000000000, -0.000000000000000000 ) ) ;
#13 = LINE ( 'NONE', #102, #273 ) ;
#14 = MECHANICAL_DESIGN_GEOMETRIC_PRESENTATION_REPRESENTATION (  '', ( #4 ), #289 ) ;
#15 = ADVANCED_FACE ( 'NONE', ( #260 ), #237, .T. ) ;
#16 = ORIENTED_EDGE ( 'NONE', *, *, #212, .F. ) ;
#17 = AXIS2_PLACEMENT_3D ( 'NONE', #54, #76, #9 ) ;
#18 = DIRECTION ( 'NONE',  ( 1.812549252658808781E-17, 0.9889864811776737374, -0.1480058784231319813 ) ) ;
#19 = ORIENTED_EDGE ( 'NONE', *, *, #6, .T. ) ;
#20 = EDGE_LOOP ( 'NONE', ( #112, #132, #180, #185 ) ) ;
#21 = EDGE_CURVE ( 'NONE', #69, #161, #274, .T. ) ;
#22 = DIRECTION ( 'NONE',  ( 0.000000000000000000, -0.000000000000000000, -1.000000000000000000 ) ) ;
#23 = ORIENTED_EDGE ( 'NONE', *, *, #212, .T. ) ;
#24 = EDGE_LOOP ( 'NONE', ( #25, #136, #299, #85 ) ) ;
#25 = ORIENTED_EDGE ( 'NONE', *, *, #257, .F. ) ;
#26 = ORIENTED_EDGE ( 'NONE', *, *, #189, .F. ) ;
#27 = LINE ( 'NONE', #117, #295 ) ;
#28 = DIRECTION ( 'NONE',  ( -0.000000000000000000, 1.000000000000000000, -0.000000000000000000 ) ) ;
#29 = PRODUCT_RELATED_PRODUCT_CATEGORY ( 'part', '', ( #64 ) ) ;
#30 = DIRECTION ( 'NONE',  ( -0.000000000000000000, 1.000000000000000000, -0.000000000000000000 ) ) ;
#31 = DIRECTION ( 'NONE',  ( 0.000000000000000000, 0.000000000000000000, 1.000000000000000000 ) ) ;
#32 = CARTESIAN_POINT ( 'NONE',  ( 0.000000000000000000, 0.000000000000000000, 0.000000000000000000 ) ) ;
#33 = AXIS2_PLACEMENT_3D ( 'NONE', #3, #93, #300 ) ;
#34 = EDGE_CURVE ( 'NONE', #153, #8, #267, .T. ) ;
#35 = VERTEX_POINT ( 'NONE', #164 ) ;
#36 =( LENGTH_UNIT ( ) NAMED_UNIT ( * ) SI_UNIT ( .MILLI., .METRE. ) );
#37 = EDGE_LOOP ( 'NONE', ( #1, #39, #225, #45 ) ) ;
#38 = ADVANCED_FACE ( 'NONE', ( #48 ), #226, .F. ) ;
#39 = ORIENTED_EDGE ( 'NONE', *, *, #216, .T. ) ;
#40 = AXIS2_PLACEMENT_3D ( 'NONE', #258, #115, #206 ) ;
#41 = ORIENTED_EDGE ( 'NONE', *, *, #34, .T. ) ;
#42 =( GEOMETRIC_REPRESENTATION_CONTEXT ( 3 ) GLOBAL_UNCERTAINTY_ASSIGNED_CONTEXT ( ( #141 ) ) GLOBAL_UNIT_ASSIGNED_CONTEXT ( ( #151, #245, #224 ) ) REPRESENTATION_CONTEXT ( 'NONE', 'WORKASPACE' ) );
#43 = ORIENTED_EDGE ( 'NONE', *, *, #196, .T. ) ;
#44 = EDGE_CURVE ( 'NONE', #116, #59, #111, .T. ) ;
#45 = ORIENTED_EDGE ( 'NONE', *, *, #44, .F. ) ;
#46 = VERTEX_POINT ( 'NONE', #205 ) ;
#47 = PRESENTATION_LAYER_ASSIGNMENT (  '', '', ( #4 ) ) ;
#48 = FACE_OUTER_BOUND ( 'NONE', #156, .T. ) ;
#49 = APPLICATION_CONTEXT ( 'automotive_design' ) ;
#50 = CARTESIAN_POINT ( 'NONE',  ( 7.164607384462931619E-14, 700.0000000000001137, -570.0691806733518661 ) ) ;
#51 = DIRECTION ( 'NONE',  ( 0.000000000000000000, -1.000000000000000000, 0.000000000000000000 ) ) ;
#52 = CARTESIAN_POINT ( 'NONE',  ( 600.0000000000000000, 900.0000000000001137, 0.000000000000000000 ) ) ;
#53 = AXIS2_PLACEMENT_3D ( 'NONE', #214, #190, #292 ) ;
#54 = CARTESIAN_POINT ( 'NONE',  ( 570.0691806733518661, 700.0000000000002274, 0.000000000000000000 ) ) ;
#55 = EDGE_CURVE ( 'NONE', #59, #116, #221, .T. ) ;
#56 = SURFACE_SIDE_STYLE ('',( #91 ) ) ;
#57 = DIRECTION ( 'NONE',  ( 0.000000000000000000, 0.000000000000000000, 1.000000000000000000 ) ) ;
#58 = STYLED_ITEM ( 'NONE', ( #242 ), #290 ) ;
#59 = VERTEX_POINT ( 'NONE', #89 ) ;
#60 =( NAMED_UNIT ( * ) SI_UNIT ( $, .STERADIAN. ) SOLID_ANGLE_UNIT ( ) );
#61 = VERTEX_POINT ( 'NONE', #177 ) ;
#62 = LINE ( 'NONE', #175, #173 ) ;
#63 = VERTEX_POINT ( 'NONE', #279 ) ;
#64 = PRODUCT ( 'Barro BR1', 'Barro BR1', '', ( #70 ) ) ;
#65 = LINE ( 'NONE', #254, #82 ) ;
#66 = ORIENTED_EDGE ( 'NONE', *, *, #83, .F. ) ;
#67 = EDGE_LOOP ( 'NONE', ( #41, #110, #256, #26 ) ) ;
#68 = EDGE_CURVE ( 'NONE', #8, #116, #65, .T. ) ;
#69 = VERTEX_POINT ( 'NONE', #213 ) ;
#70 = PRODUCT_CONTEXT ( 'NONE', #49, 'mechanical' ) ;
#71 = PRODUCT_DEFINITION_CONTEXT ( 'detailed design', #126, 'design' ) ;
#72 = AXIS2_PLACEMENT_3D ( 'NONE', #94, #208, #284 ) ;
#73 = DIRECTION ( 'NONE',  ( 0.000000000000000000, 0.000000000000000000, 1.000000000000000000 ) ) ;
#74 = LINE ( 'NONE', #166, #234 ) ;
#75 = EDGE_CURVE ( 'NONE', #161, #69, #172, .T. ) ;
#76 = DIRECTION ( 'NONE',  ( -0.000000000000000000, 1.000000000000000000, 0.000000000000000000 ) ) ;
#77 = PLANE ( 'NONE',  #248 ) ;
#78 = CARTESIAN_POINT ( 'NONE',  ( 0.000000000000000000, 0.000000000000000000, 360.0000000000000000 ) ) ;
#79 = CARTESIAN_POINT ( 'NONE',  ( 0.000000000000000000, 900.0000000000001137, 0.000000000000000000 ) ) ;
#80 = CARTESIAN_POINT ( 'NONE',  ( 0.000000000000000000, 900.0000000000000000, 0.000000000000000000 ) ) ;
#81 = AXIS2_PLACEMENT_3D ( 'NONE', #209, #123, #294 ) ;
#82 = VECTOR ( 'NONE', #134, 999.9999999999998863 ) ;
#83 = EDGE_CURVE ( 'NONE', #222, #46, #255, .T. ) ;
#84 = SURFACE_STYLE_USAGE ( .BOTH. , #219 ) ;
#85 = ORIENTED_EDGE ( 'NONE', *, *, #250, .F. ) ;
#86 = ORIENTED_EDGE ( 'NONE', *, *, #83, .T. ) ;
#87 = ADVANCED_FACE ( 'NONE', ( #239 ), #271, .F. ) ;
#88 = EDGE_LOOP ( 'NONE', ( #198, #154 ) ) ;
#89 = CARTESIAN_POINT ( 'NONE',  ( 0.000000000000000000, 700.0000000000002274, 528.0691806733519797 ) ) ;
#90 = CARTESIAN_POINT ( 'NONE',  ( 333.5000000000001137, 29.99999999999997868, 0.000000000000000000 ) ) ;
#91 = SURFACE_STYLE_FILL_AREA ( #2 ) ;
#92 = CIRCLE ( 'NONE', #40, 333.5000000000001137 ) ;
#93 = DIRECTION ( 'NONE',  ( -0.000000000000000000, 1.000000000000000000, -0.000000000000000000 ) ) ;
#94 = CARTESIAN_POINT ( 'NONE',  ( 0.000000000000000000, 0.000000000000000000, 0.000000000000000000 ) ) ;
#95 = ORIENTED_EDGE ( 'NONE', *, *, #55, .T. ) ;
#96 = UNCERTAINTY_MEASURE_WITH_UNIT (LENGTH_MEASURE( 1.000000000000000082E-05 ), #36, 'distance_accuracy_value', 'NONE');
#97 = ADVANCED_FACE ( 'NONE', ( #143 ), #194, .T. ) ;
#98 = DIRECTION ( 'NONE',  ( -0.000000000000000000, 1.000000000000000000, -0.000000000000000000 ) ) ;
#99 = FACE_OUTER_BOUND ( 'NONE', #24, .T. ) ;
#100 = FACE_OUTER_BOUND ( 'NONE', #5, .T. ) ;
#101 = CARTESIAN_POINT ( 'NONE',  ( 6.466982318399859154E-14, 700.0000000000002274, -528.0691806733519797 ) ) ;
#102 = CARTESIAN_POINT ( 'NONE',  ( 0.000000000000000000, 0.000000000000000000, 360.0000000000000000 ) ) ;
#103 = CIRCLE ( 'NONE', #130, 600.0000000000000000 ) ;
#104 = CARTESIAN_POINT ( 'NONE',  ( 6.981333974041745514E-14, 700.0000000000001137, -570.0691806733518661 ) ) ;
#105 = ORIENTED_EDGE ( 'NONE', *, *, #75, .F. ) ;
#106 = AXIS2_PLACEMENT_3D ( 'NONE', #291, #236, #31 ) ;
#107 = FACE_OUTER_BOUND ( 'NONE', #246, .T. ) ;
#108 = ORIENTED_EDGE ( 'NONE', *, *, #196, .F. ) ;
#109 = FILL_AREA_STYLE_COLOUR ( '', #181 ) ;
#110 = ORIENTED_EDGE ( 'NONE', *, *, #68, .T. ) ;
#111 = CIRCLE ( 'NONE', #149, 528.0691806733519797 ) ;
#112 = ORIENTED_EDGE ( 'NONE', *, *, #21, .T. ) ;
#113 = VERTEX_POINT ( 'NONE', #288 ) ;
#114 = DIRECTION ( 'NONE',  ( -0.000000000000000000, 1.000000000000000000, -0.000000000000000000 ) ) ;
#115 = DIRECTION ( 'NONE',  ( -0.000000000000000000, 1.000000000000000000, -0.000000000000000000 ) ) ;
#116 = VERTEX_POINT ( 'NONE', #101 ) ;
#117 = CARTESIAN_POINT ( 'NONE',  ( 0.000000000000000000, 900.0000000000000000, 553.9999999999998863 ) ) ;
#118 = AXIS2_PLACEMENT_3D ( 'NONE', #79, #235, #11 ) ;
#119 = AXIS2_PLACEMENT_3D ( 'NONE', #142, #12, #272 ) ;
#120 = DIRECTION ( 'NONE',  ( 0.000000000000000000, 0.000000000000000000, 1.000000000000000000 ) ) ;
#121 =( NAMED_UNIT ( * ) SI_UNIT ( $, .STERADIAN. ) SOLID_ANGLE_UNIT ( ) );
#122 = DIRECTION ( 'NONE',  ( 0.000000000000000000, 0.9693509076721993356, 0.2456803162548503172 ) ) ;
#123 = DIRECTION ( 'NONE',  ( -0.000000000000000000, 1.000000000000000000, -0.000000000000000000 ) ) ;
#124 = PLANE ( 'NONE',  #17 ) ;
#125 = PRESENTATION_STYLE_ASSIGNMENT (( #84 ) ) ;
#126 = APPLICATION_CONTEXT ( 'automotive_design' ) ;
#127 = ORIENTED_EDGE ( 'NONE', *, *, #200, .T. ) ;
#128 = LINE ( 'NONE', #104, #277 ) ;
#129 = AXIS2_PLACEMENT_3D ( 'NONE', #10, #98, #187 ) ;
#130 = AXIS2_PLACEMENT_3D ( 'NONE', #268, #146, #197 ) ;
#131 = APPLICATION_PROTOCOL_DEFINITION ( 'draft international standard', 'automotive_design', 1998, #49 ) ;
#132 = ORIENTED_EDGE ( 'NONE', *, *, #257, .T. ) ;
#133 = AXIS2_PLACEMENT_3D ( 'NONE', #90, #135, #22 ) ;
#134 = DIRECTION ( 'NONE',  ( 2.859107150811366514E-17, 0.9723654902250423726, -0.2334638160816643881 ) ) ;
#135 = DIRECTION ( 'NONE',  ( 0.000000000000000000, -1.000000000000000000, 0.000000000000000000 ) ) ;
#136 = ORIENTED_EDGE ( 'NONE', *, *, #75, .T. ) ;
#137 = CARTESIAN_POINT ( 'NONE',  ( 0.000000000000000000, 0.000000000000000000, 0.000000000000000000 ) ) ;
#138 = ADVANCED_FACE ( 'NONE', ( #99 ), #144, .T. ) ;
#139 = PRESENTATION_LAYER_ASSIGNMENT (  '', '', ( #58 ) ) ;
#140 = COLOUR_RGB ( '',0.7921568627450980005, 0.8196078431372548767, 0.9333333333333333481 ) ;
#141 = UNCERTAINTY_MEASURE_WITH_UNIT (LENGTH_MEASURE( 1.000000000000000082E-05 ), #151, 'distance_accuracy_value', 'NONE');
#142 = CARTESIAN_POINT ( 'NONE',  ( 0.000000000000000000, 900.0000000000000000, 0.000000000000000000 ) ) ;
#143 = FACE_OUTER_BOUND ( 'NONE', #20, .T. ) ;
#144 = CONICAL_SURFACE ( 'NONE', #106, 570.0691806733518661, 0.1485516386540996769 ) ;
#145 = DIRECTION ( 'NONE',  ( 0.000000000000000000, -0.000000000000000000, -1.000000000000000000 ) ) ;
#146 = DIRECTION ( 'NONE',  ( -0.000000000000000000, 1.000000000000000000, -0.000000000000000000 ) ) ;
#147 = DIRECTION ( 'NONE',  ( 0.000000000000000000, 0.000000000000000000, 1.000000000000000000 ) ) ;
#148 = SURFACE_STYLE_USAGE ( .BOTH. , #56 ) ;
#149 = AXIS2_PLACEMENT_3D ( 'NONE', #229, #114, #202 ) ;
#150 = CARTESIAN_POINT ( 'NONE',  ( 0.000000000000000000, 900.0000000000000000, 0.000000000000000000 ) ) ;
#151 =( LENGTH_UNIT ( ) NAMED_UNIT ( * ) SI_UNIT ( .MILLI., .METRE. ) );
#152 = DIRECTION ( 'NONE',  ( -0.000000000000000000, 1.000000000000000000, -0.000000000000000000 ) ) ;
#153 = VERTEX_POINT ( 'NONE', #78 ) ;
#154 = ORIENTED_EDGE ( 'NONE', *, *, #216, .F. ) ;
#155 = AXIS2_PLACEMENT_3D ( 'NONE', #293, #30, #169 ) ;
#156 = EDGE_LOOP ( 'NONE', ( #193, #19 ) ) ;
#157 = PRODUCT_DEFINITION_FORMATION_WITH_SPECIFIED_SOURCE ( 'ANY', '', #64, .NOT_KNOWN. ) ;
#158 = CONICAL_SURFACE ( 'NONE', #261, 553.9999999999998863, 0.2482214567864039212 ) ;
#159 = ORIENTED_EDGE ( 'NONE', *, *, #281, .T. ) ;
#160 = DIRECTION ( 'NONE',  ( 0.000000000000000000, 0.000000000000000000, 1.000000000000000000 ) ) ;
#161 = VERTEX_POINT ( 'NONE', #50 ) ;
#162 = AXIS2_PLACEMENT_3D ( 'NONE', #32, #28, #120 ) ;
#163 = AXIS2_PLACEMENT_3D ( 'NONE', #217, #167, #238 ) ;
#164 = CARTESIAN_POINT ( 'NONE',  ( 7.347880794884118987E-14, 900.0000000000001137, -600.0000000000000000 ) ) ;
#165 = FACE_BOUND ( 'NONE', #176, .T. ) ;
#166 = CARTESIAN_POINT ( 'NONE',  ( 0.000000000000000000, 700.0000000000001137, 570.0691806733518661 ) ) ;
#167 = DIRECTION ( 'NONE',  ( -0.000000000000000000, 1.000000000000000000, 0.000000000000000000 ) ) ;
#168 = FACE_BOUND ( 'NONE', #275, .T. ) ;
#169 = DIRECTION ( 'NONE',  ( 0.000000000000000000, 0.000000000000000000, 1.000000000000000000 ) ) ;
#170 = CIRCLE ( 'NONE', #81, 553.9999999999998863 ) ;
#171 =( NAMED_UNIT ( * ) PLANE_ANGLE_UNIT ( ) SI_UNIT ( $, .RADIAN. ) );
#172 = CIRCLE ( 'NONE', #227, 570.0691806733518661 ) ;
#173 = VECTOR ( 'NONE', #220, 1000.000000000000000 ) ;
#174 = ADVANCED_FACE ( 'NONE', ( #241 ), #199, .T. ) ;
#175 = CARTESIAN_POINT ( 'NONE',  ( 6.784543267276336043E-14, 900.0000000000000000, -553.9999999999998863 ) ) ;
#176 = EDGE_LOOP ( 'NONE', ( #108, #66 ) ) ;
#177 = CARTESIAN_POINT ( 'NONE',  ( 0.000000000000000000, 30.00000000000002842, 333.5000000000001137 ) ) ;
#178 = ORIENTED_EDGE ( 'NONE', *, *, #44, .T. ) ;
#179 = DIRECTION ( 'NONE',  ( -0.000000000000000000, 1.000000000000000000, -0.000000000000000000 ) ) ;
#180 = ORIENTED_EDGE ( 'NONE', *, *, #200, .F. ) ;
#181 = COLOUR_RGB ( '',0.7921568627450980005, 0.8196078431372548767, 0.9333333333333333481 ) ;
#182 = ADVANCED_FACE ( 'NONE', ( #100, #168 ), #124, .F. ) ;
#183 = ORIENTED_EDGE ( 'NONE', *, *, #250, .T. ) ;
#184 = APPLICATION_PROTOCOL_DEFINITION ( 'draft international standard', 'automotive_design', 1998, #126 ) ;
#185 = ORIENTED_EDGE ( 'NONE', *, *, #232, .F. ) ;
#186 = AXIS2_PLACEMENT_3D ( 'NONE', #203, #259, #280 ) ;
#187 = DIRECTION ( 'NONE',  ( 0.000000000000000000, 0.000000000000000000, 1.000000000000000000 ) ) ;
#188 = CARTESIAN_POINT ( 'NONE',  ( 6.784543267276336043E-14, 900.0000000000000000, -553.9999999999998863 ) ) ;
#189 = EDGE_CURVE ( 'NONE', #153, #59, #13, .T. ) ;
#190 = DIRECTION ( 'NONE',  ( -0.000000000000000000, 1.000000000000000000, -0.000000000000000000 ) ) ;
#191 = CARTESIAN_POINT ( 'NONE',  ( 0.000000000000000000, 700.0000000000001137, 0.000000000000000000 ) ) ;
#192 = DIRECTION ( 'NONE',  ( 0.000000000000000000, 0.9723654902250423726, 0.2334638160816643881 ) ) ;
#193 = ORIENTED_EDGE ( 'NONE', *, *, #243, .T. ) ;
#194 = CONICAL_SURFACE ( 'NONE', #155, 570.0691806733518661, 0.1485516386540996769 ) ;
#195 = FILL_AREA_STYLE ('',( #297 ) ) ;
#196 = EDGE_CURVE ( 'NONE', #46, #222, #170, .T. ) ;
#197 = DIRECTION ( 'NONE',  ( 0.000000000000000000, 0.000000000000000000, 1.000000000000000000 ) ) ;
#198 = ORIENTED_EDGE ( 'NONE', *, *, #34, .F. ) ;
#199 = CONICAL_SURFACE ( 'NONE', #162, 360.0000000000000000, 0.2356384256117905751 ) ;
#200 = EDGE_CURVE ( 'NONE', #113, #35, #253, .T. ) ;
#201 = PRODUCT_DEFINITION_SHAPE ( 'NONE', 'NONE',  #285 ) ;
#202 = DIRECTION ( 'NONE',  ( 0.000000000000000000, 0.000000000000000000, 1.000000000000000000 ) ) ;
#203 = CARTESIAN_POINT ( 'NONE',  ( 0.000000000000000000, 700.0000000000001137, 0.000000000000000000 ) ) ;
#204 = FACE_OUTER_BOUND ( 'NONE', #286, .T. ) ;
#205 = CARTESIAN_POINT ( 'NONE',  ( 0.000000000000000000, 900.0000000000000000, 553.9999999999998863 ) ) ;
#206 = DIRECTION ( 'NONE',  ( 0.000000000000000000, 0.000000000000000000, 1.000000000000000000 ) ) ;
#207 = CIRCLE ( 'NONE', #53, 333.5000000000001137 ) ;
#208 = DIRECTION ( 'NONE',  ( -0.000000000000000000, 1.000000000000000000, -0.000000000000000000 ) ) ;
#209 = CARTESIAN_POINT ( 'NONE',  ( 0.000000000000000000, 900.0000000000000000, 0.000000000000000000 ) ) ;
#210 = DIRECTION ( 'NONE',  ( 1.000000000000000000, 0.000000000000000000, 0.000000000000000000 ) ) ;
#211 = AXIS2_PLACEMENT_3D ( 'NONE', #137, #233, #73 ) ;
#212 = EDGE_CURVE ( 'NONE', #61, #46, #27, .T. ) ;
#213 = CARTESIAN_POINT ( 'NONE',  ( 0.000000000000000000, 700.0000000000001137, 570.0691806733518661 ) ) ;
#214 = CARTESIAN_POINT ( 'NONE',  ( 0.000000000000000000, 30.00000000000002842, 0.000000000000000000 ) ) ;
#215 = DIRECTION ( 'NONE',  ( -0.000000000000000000, 1.000000000000000000, -0.000000000000000000 ) ) ;
#216 = EDGE_CURVE ( 'NONE', #8, #153, #266, .T. ) ;
#217 = CARTESIAN_POINT ( 'NONE',  ( 0.000000000000000000, 0.000000000000000000, 0.000000000000000000 ) ) ;
#218 =( LENGTH_UNIT ( ) NAMED_UNIT ( * ) SI_UNIT ( .MILLI., .METRE. ) );
#219 = SURFACE_SIDE_STYLE ('',( #249 ) ) ;
#220 = DIRECTION ( 'NONE',  ( 3.008716129150118845E-17, 0.9693509076721993356, -0.2456803162548503172 ) ) ;
#221 = CIRCLE ( 'NONE', #33, 528.0691806733519797 ) ;
#222 = VERTEX_POINT ( 'NONE', #188 ) ;
#223 = MECHANICAL_DESIGN_GEOMETRIC_PRESENTATION_REPRESENTATION (  '', ( #58 ), #269 ) ;
#224 =( NAMED_UNIT ( * ) SI_UNIT ( $, .STERADIAN. ) SOLID_ANGLE_UNIT ( ) );
#225 = ORIENTED_EDGE ( 'NONE', *, *, #189, .T. ) ;
#226 = PLANE ( 'NONE',  #133 ) ;
#227 = AXIS2_PLACEMENT_3D ( 'NONE', #191, #215, #147 ) ;
#228 = ORIENTED_EDGE ( 'NONE', *, *, #281, .F. ) ;
#229 = CARTESIAN_POINT ( 'NONE',  ( 0.000000000000000000, 700.0000000000002274, 0.000000000000000000 ) ) ;
#230 = SHAPE_DEFINITION_REPRESENTATION ( #201, #290 ) ;
#231 = CARTESIAN_POINT ( 'NONE',  ( 5.437855397665164768E-14, 0.000000000000000000, -360.0000000000000000 ) ) ;
#232 = EDGE_CURVE ( 'NONE', #69, #113, #74, .T. ) ;
#233 = DIRECTION ( 'NONE',  ( -0.000000000000000000, 1.000000000000000000, -0.000000000000000000 ) ) ;
#234 = VECTOR ( 'NONE', #265, 1000.000000000000114 ) ;
#235 = DIRECTION ( 'NONE',  ( -0.000000000000000000, 1.000000000000000000, -0.000000000000000000 ) ) ;
#236 = DIRECTION ( 'NONE',  ( -0.000000000000000000, 1.000000000000000000, -0.000000000000000000 ) ) ;
#237 = CONICAL_SURFACE ( 'NONE', #72, 360.0000000000000000, 0.2356384256117905751 ) ;
#238 = DIRECTION ( 'NONE',  ( 0.000000000000000000, 0.000000000000000000, 1.000000000000000000 ) ) ;
#239 = FACE_OUTER_BOUND ( 'NONE', #88, .T. ) ;
#240 = ADVANCED_FACE ( 'NONE', ( #165, #264 ), #77, .F. ) ;
#241 = FACE_OUTER_BOUND ( 'NONE', #37, .T. ) ;
#242 = PRESENTATION_STYLE_ASSIGNMENT (( #148 ) ) ;
#243 = EDGE_CURVE ( 'NONE', #61, #63, #207, .T. ) ;
#244 = EDGE_LOOP ( 'NONE', ( #127, #183 ) ) ;
#245 =( NAMED_UNIT ( * ) PLANE_ANGLE_UNIT ( ) SI_UNIT ( $, .RADIAN. ) );
#246 = EDGE_LOOP ( 'NONE', ( #228, #251, #23, #43 ) ) ;
#247 = CONICAL_SURFACE ( 'NONE', #282, 553.9999999999998863, 0.2482214567864039212 ) ;
#248 = AXIS2_PLACEMENT_3D ( 'NONE', #52, #51, #145 ) ;
#249 = SURFACE_STYLE_FILL_AREA ( #195 ) ;
#250 = EDGE_CURVE ( 'NONE', #35, #113, #103, .T. ) ;
#251 = ORIENTED_EDGE ( 'NONE', *, *, #243, .F. ) ;
#252 = MANIFOLD_SOLID_BREP ( 'Revolve1', #287 ) ;
#253 = CIRCLE ( 'NONE', #118, 600.0000000000000000 ) ;
#254 = CARTESIAN_POINT ( 'NONE',  ( 4.408728476930471644E-14, 0.000000000000000000, -360.0000000000000000 ) ) ;
#255 = CIRCLE ( 'NONE', #119, 553.9999999999998863 ) ;
#256 = ORIENTED_EDGE ( 'NONE', *, *, #55, .F. ) ;
#257 = EDGE_CURVE ( 'NONE', #161, #35, #128, .T. ) ;
#258 = CARTESIAN_POINT ( 'NONE',  ( 0.000000000000000000, 30.00000000000002842, 0.000000000000000000 ) ) ;
#259 = DIRECTION ( 'NONE',  ( -0.000000000000000000, 1.000000000000000000, -0.000000000000000000 ) ) ;
#260 = FACE_OUTER_BOUND ( 'NONE', #67, .T. ) ;
#261 = AXIS2_PLACEMENT_3D ( 'NONE', #80, #179, #57 ) ;
#262 = ADVANCED_FACE ( 'NONE', ( #204 ), #158, .F. ) ;
#263 = CARTESIAN_POINT ( 'NONE',  ( 0.000000000000000000, 0.000000000000000000, 0.000000000000000000 ) ) ;
#264 = FACE_OUTER_BOUND ( 'NONE', #244, .T. ) ;
#265 = DIRECTION ( 'NONE',  ( 0.000000000000000000, 0.9889864811776737374, 0.1480058784231319813 ) ) ;
#266 = CIRCLE ( 'NONE', #129, 360.0000000000000000 ) ;
#267 = CIRCLE ( 'NONE', #211, 360.0000000000000000 ) ;
#268 = CARTESIAN_POINT ( 'NONE',  ( 0.000000000000000000, 900.0000000000001137, 0.000000000000000000 ) ) ;
#269 =( GEOMETRIC_REPRESENTATION_CONTEXT ( 3 ) GLOBAL_UNCERTAINTY_ASSIGNED_CONTEXT ( ( #7 ) ) GLOBAL_UNIT_ASSIGNED_CONTEXT ( ( #218, #171, #121 ) ) REPRESENTATION_CONTEXT ( 'NONE', 'WORKASPACE' ) );
#270 = ADVANCED_FACE ( 'NONE', ( #107 ), #247, .F. ) ;
#271 = PLANE ( 'NONE',  #163 ) ;
#272 = DIRECTION ( 'NONE',  ( 0.000000000000000000, 0.000000000000000000, 1.000000000000000000 ) ) ;
#273 = VECTOR ( 'NONE', #192, 999.9999999999998863 ) ;
#274 = CIRCLE ( 'NONE', #186, 570.0691806733518661 ) ;
#275 = EDGE_LOOP ( 'NONE', ( #95, #178 ) ) ;
#276 =( NAMED_UNIT ( * ) PLANE_ANGLE_UNIT ( ) SI_UNIT ( $, .RADIAN. ) );
#277 = VECTOR ( 'NONE', #18, 1000.000000000000114 ) ;
#278 = ORIENTED_EDGE ( 'NONE', *, *, #6, .F. ) ;
#279 = CARTESIAN_POINT ( 'NONE',  ( 5.434370171216380403E-14, 30.00000000000002842, -333.5000000000001137 ) ) ;
#280 = DIRECTION ( 'NONE',  ( 0.000000000000000000, 0.000000000000000000, 1.000000000000000000 ) ) ;
#281 = EDGE_CURVE ( 'NONE', #63, #222, #62, .T. ) ;
#282 = AXIS2_PLACEMENT_3D ( 'NONE', #150, #152, #298 ) ;
#283 = ORIENTED_EDGE ( 'NONE', *, *, #21, .F. ) ;
#284 = DIRECTION ( 'NONE',  ( 0.000000000000000000, 0.000000000000000000, 1.000000000000000000 ) ) ;
#285 = PRODUCT_DEFINITION ( 'UNKNOWN', '', #157, #71 ) ;
#286 = EDGE_LOOP ( 'NONE', ( #278, #159, #86, #16 ) ) ;
#287 = CLOSED_SHELL ( 'NONE', ( #262, #97, #15, #87, #174, #182, #138, #240, #270, #38 ) ) ;
#288 = CARTESIAN_POINT ( 'NONE',  ( 0.000000000000000000, 900.0000000000001137, 600.0000000000000000 ) ) ;
#289 =( GEOMETRIC_REPRESENTATION_CONTEXT ( 3 ) GLOBAL_UNCERTAINTY_ASSIGNED_CONTEXT ( ( #96 ) ) GLOBAL_UNIT_ASSIGNED_CONTEXT ( ( #36, #276, #60 ) ) REPRESENTATION_CONTEXT ( 'NONE', 'WORKASPACE' ) );
#290 = ADVANCED_BREP_SHAPE_REPRESENTATION ( 'Barro BR1', ( #252, #296 ), #42 ) ;
#291 = CARTESIAN_POINT ( 'NONE',  ( 0.000000000000000000, 700.0000000000001137, 0.000000000000000000 ) ) ;
#292 = DIRECTION ( 'NONE',  ( 0.000000000000000000, 0.000000000000000000, 1.000000000000000000 ) ) ;
#293 = CARTESIAN_POINT ( 'NONE',  ( 0.000000000000000000, 700.0000000000001137, 0.000000000000000000 ) ) ;
#294 = DIRECTION ( 'NONE',  ( 0.000000000000000000, 0.000000000000000000, 1.000000000000000000 ) ) ;
#295 = VECTOR ( 'NONE', #122, 1000.000000000000000 ) ;
#296 = AXIS2_PLACEMENT_3D ( 'NONE', #263, #160, #210 ) ;
#297 = FILL_AREA_STYLE_COLOUR ( '', #140 ) ;
#298 = DIRECTION ( 'NONE',  ( 0.000000000000000000, 0.000000000000000000, 1.000000000000000000 ) ) ;
#299 = ORIENTED_EDGE ( 'NONE', *, *, #232, .T. ) ;
#300 = DIRECTION ( 'NONE',  ( 0.000000000000000000, 0.000000000000000000, 1.000000000000000000 ) ) ;
ENDSEC;
END-ISO-10303-21;
