ISO-10303-21;
HEADER;
FILE_DESCRIPTION (( 'STEP AP214' ),
    '1' );
FILE_NAME ('Barro BR2.STEP',
    '2021-04-21T11:52:29',
    ( '' ),
    ( '' ),
    'SwSTEP 2.0',
    'SolidWorks 2020',
    '' );
FILE_SCHEMA (( 'AUTOMOTIVE_DESIGN' ));
ENDSEC;

DATA;
#1 = PRODUCT_CONTEXT ( 'NONE', #185, 'mechanical' ) ;
#2 = VECTOR ( 'NONE', #32, 1000.000000000000000 ) ;
#3 = CARTESIAN_POINT ( 'NONE',  ( 8.621513465997365790E-14, 1200.000000000000000, -704.0000000000000000 ) ) ;
#4 = DIRECTION ( 'NONE',  ( -0.000000000000000000, 1.000000000000000000, -0.000000000000000000 ) ) ;
#5 =( LENGTH_UNIT ( ) NAMED_UNIT ( * ) SI_UNIT ( .MILLI., .METRE. ) );
#6 = LINE ( 'NONE', #213, #2 ) ;
#7 = CONICAL_SURFACE ( 'NONE', #146, 720.9408294627728537, 0.1442861699991387081 ) ;
#8 = DIRECTION ( 'NONE',  ( -0.000000000000000000, 1.000000000000000000, -0.000000000000000000 ) ) ;
#9 = DIRECTION ( 'NONE',  ( 0.000000000000000000, -0.000000000000000000, -1.000000000000000000 ) ) ;
#10 = ADVANCED_FACE ( 'NONE', ( #103 ), #77, .F. ) ;
#11 = UNCERTAINTY_MEASURE_WITH_UNIT (LENGTH_MEASURE( 1.000000000000000082E-05 ), #253, 'distance_accuracy_value', 'NONE');
#12 = FACE_OUTER_BOUND ( 'NONE', #289, .T. ) ;
#13 = EDGE_CURVE ( 'NONE', #263, #241, #129, .T. ) ;
#14 = COLOUR_RGB ( '',0.7921568627450980005, 0.8196078431372548767, 0.9333333333333333481 ) ;
#15 = ORIENTED_EDGE ( 'NONE', *, *, #294, .F. ) ;
#16 = ORIENTED_EDGE ( 'NONE', *, *, #284, .T. ) ;
#17 = ORIENTED_EDGE ( 'NONE', *, *, #288, .T. ) ;
#18 = ORIENTED_EDGE ( 'NONE', *, *, #74, .T. ) ;
#19 = ORIENTED_EDGE ( 'NONE', *, *, #63, .F. ) ;
#20 = DIRECTION ( 'NONE',  ( 0.000000000000000000, 0.000000000000000000, 1.000000000000000000 ) ) ;
#21 = VECTOR ( 'NONE', #27, 1000.000000000000000 ) ;
#22 = DIRECTION ( 'NONE',  ( 0.000000000000000000, 0.000000000000000000, 1.000000000000000000 ) ) ;
#23 = ADVANCED_FACE ( 'NONE', ( #135 ), #7, .T. ) ;
#24 = SURFACE_STYLE_FILL_AREA ( #277 ) ;
#25 = CARTESIAN_POINT ( 'NONE',  ( 0.000000000000000000, 1000.000000000000000, 0.000000000000000000 ) ) ;
#26 = DIRECTION ( 'NONE',  ( 1.000000000000000000, 0.000000000000000000, 0.000000000000000000 ) ) ;
#27 = DIRECTION ( 'NONE',  ( 0.000000000000000000, 0.9691601487667491632, 0.2464317472291519262 ) ) ;
#28 = DIRECTION ( 'NONE',  ( 0.000000000000000000, 0.000000000000000000, 1.000000000000000000 ) ) ;
#29 = DIRECTION ( 'NONE',  ( 0.000000000000000000, 0.9703838536311564233, 0.2415681614202219718 ) ) ;
#30 =( NAMED_UNIT ( * ) PLANE_ANGLE_UNIT ( ) SI_UNIT ( $, .RADIAN. ) );
#31 = AXIS2_PLACEMENT_3D ( 'NONE', #183, #140, #28 ) ;
#32 = DIRECTION ( 'NONE',  ( 0.000000000000000000, 0.9896087967918856254, 0.1437860539555780304 ) ) ;
#33 = DIRECTION ( 'NONE',  ( -0.000000000000000000, 1.000000000000000000, -0.000000000000000000 ) ) ;
#34 = CIRCLE ( 'NONE', #72, 720.9408294627728537 ) ;
#35 = EDGE_LOOP ( 'NONE', ( #124, #242, #104, #291 ) ) ;
#36 = ORIENTED_EDGE ( 'NONE', *, *, #284, .F. ) ;
#37 = ORIENTED_EDGE ( 'NONE', *, *, #105, .F. ) ;
#38 = VERTEX_POINT ( 'NONE', #205 ) ;
#39 = PRESENTATION_LAYER_ASSIGNMENT (  '', '', ( #187 ) ) ;
#40 = EDGE_CURVE ( 'NONE', #59, #55, #85, .T. ) ;
#41 = ORIENTED_EDGE ( 'NONE', *, *, #98, .F. ) ;
#42 = FACE_OUTER_BOUND ( 'NONE', #145, .T. ) ;
#43 = CARTESIAN_POINT ( 'NONE',  ( 0.000000000000000000, 1200.000000000000000, 0.000000000000000000 ) ) ;
#44 = DIRECTION ( 'NONE',  ( 0.000000000000000000, 0.000000000000000000, 1.000000000000000000 ) ) ;
#45 = FACE_OUTER_BOUND ( 'NONE', #58, .T. ) ;
#46 = FILL_AREA_STYLE ('',( #115 ) ) ;
#47 = PRESENTATION_STYLE_ASSIGNMENT (( #251 ) ) ;
#48 = CLOSED_SHELL ( 'NONE', ( #10, #23, #206, #210, #262, #290, #153, #184, #70, #67 ) ) ;
#49 = DIRECTION ( 'NONE',  ( -0.000000000000000000, 1.000000000000000000, -0.000000000000000000 ) ) ;
#50 = CARTESIAN_POINT ( 'NONE',  ( 0.000000000000000000, 0.000000000000000000, 0.000000000000000000 ) ) ;
#51 = CARTESIAN_POINT ( 'NONE',  ( 0.000000000000000000, 0.000000000000000000, 0.000000000000000000 ) ) ;
#52 = CONICAL_SURFACE ( 'NONE', #264, 430.0000000000000000, 0.2439815485717633514 ) ;
#53 = FACE_OUTER_BOUND ( 'NONE', #295, .T. ) ;
#54 =( NAMED_UNIT ( * ) SI_UNIT ( $, .STERADIAN. ) SOLID_ANGLE_UNIT ( ) );
#55 = VERTEX_POINT ( 'NONE', #204 ) ;
#56 = CIRCLE ( 'NONE', #121, 430.0000000000000000 ) ;
#57 = ORIENTED_EDGE ( 'NONE', *, *, #169, .F. ) ;
#58 = EDGE_LOOP ( 'NONE', ( #237, #245, #16, #172 ) ) ;
#59 = VERTEX_POINT ( 'NONE', #203 ) ;
#60 = ORIENTED_EDGE ( 'NONE', *, *, #144, .F. ) ;
#61 = MECHANICAL_DESIGN_GEOMETRIC_PRESENTATION_REPRESENTATION (  '', ( #187 ), #225 ) ;
#62 = CARTESIAN_POINT ( 'NONE',  ( 0.000000000000000000, 1200.000000000000000, 0.000000000000000000 ) ) ;
#63 = EDGE_CURVE ( 'NONE', #266, #38, #159, .T. ) ;
#64 = DIRECTION ( 'NONE',  ( 2.958356756591859462E-17, 0.9703838536311564233, -0.2415681614202219718 ) ) ;
#65 = FACE_OUTER_BOUND ( 'NONE', #148, .T. ) ;
#66 = CIRCLE ( 'NONE', #234, 406.5000000000000568 ) ;
#67 = ADVANCED_FACE ( 'NONE', ( #42 ), #182, .F. ) ;
#68 = CARTESIAN_POINT ( 'NONE',  ( 5.265981236333618944E-14, 0.000000000000000000, -430.0000000000000000 ) ) ;
#69 = SURFACE_SIDE_STYLE ('',( #24 ) ) ;
#70 = ADVANCED_FACE ( 'NONE', ( #65 ), #254, .F. ) ;
#71 = DIRECTION ( 'NONE',  ( 0.000000000000000000, 0.000000000000000000, 1.000000000000000000 ) ) ;
#72 = AXIS2_PLACEMENT_3D ( 'NONE', #91, #49, #232 ) ;
#73 =( NAMED_UNIT ( * ) PLANE_ANGLE_UNIT ( ) SI_UNIT ( $, .RADIAN. ) );
#74 = EDGE_CURVE ( 'NONE', #170, #241, #193, .T. ) ;
#75 = FACE_BOUND ( 'NONE', #83, .T. ) ;
#76 = DIRECTION ( 'NONE',  ( -0.000000000000000000, 1.000000000000000000, 0.000000000000000000 ) ) ;
#77 = CONICAL_SURFACE ( 'NONE', #252, 704.0000000000000000, 0.2489967228692762935 ) ;
#78 = DIRECTION ( 'NONE',  ( 0.000000000000000000, 0.000000000000000000, 1.000000000000000000 ) ) ;
#79 = ORIENTED_EDGE ( 'NONE', *, *, #98, .T. ) ;
#80 = VECTOR ( 'NONE', #29, 1000.000000000000000 ) ;
#81 = ORIENTED_EDGE ( 'NONE', *, *, #74, .F. ) ;
#82 = VERTEX_POINT ( 'NONE', #177 ) ;
#83 = EDGE_LOOP ( 'NONE', ( #18, #198 ) ) ;
#84 = VERTEX_POINT ( 'NONE', #224 ) ;
#85 = CIRCLE ( 'NONE', #274, 750.0000000000000000 ) ;
#86 = CARTESIAN_POINT ( 'NONE',  ( 0.000000000000000000, 0.000000000000000000, 0.000000000000000000 ) ) ;
#87 = DIRECTION ( 'NONE',  ( 0.000000000000000000, 0.000000000000000000, 1.000000000000000000 ) ) ;
#88 = DIRECTION ( 'NONE',  ( 0.000000000000000000, 0.000000000000000000, 1.000000000000000000 ) ) ;
#89 = DIRECTION ( 'NONE',  ( -0.000000000000000000, 1.000000000000000000, -0.000000000000000000 ) ) ;
#90 = DIRECTION ( 'NONE',  ( 0.000000000000000000, 0.000000000000000000, 1.000000000000000000 ) ) ;
#91 = CARTESIAN_POINT ( 'NONE',  ( 0.000000000000000000, 1000.000000000000000, 0.000000000000000000 ) ) ;
#92 = AXIS2_PLACEMENT_3D ( 'NONE', #50, #33, #90 ) ;
#93 = SURFACE_STYLE_FILL_AREA ( #46 ) ;
#94 = FACE_OUTER_BOUND ( 'NONE', #128, .T. ) ;
#95 = UNCERTAINTY_MEASURE_WITH_UNIT (LENGTH_MEASURE( 1.000000000000000082E-05 ), #167, 'distance_accuracy_value', 'NONE');
#96 = DIRECTION ( 'NONE',  ( 0.000000000000000000, 0.000000000000000000, 1.000000000000000000 ) ) ;
#97 = PLANE ( 'NONE',  #165 ) ;
#98 = EDGE_CURVE ( 'NONE', #220, #263, #56, .T. ) ;
#99 = FACE_OUTER_BOUND ( 'NONE', #125, .T. ) ;
#100 = EDGE_CURVE ( 'NONE', #82, #84, #197, .T. ) ;
#101 = ORIENTED_EDGE ( 'NONE', *, *, #100, .T. ) ;
#102 = ORIENTED_EDGE ( 'NONE', *, *, #149, .T. ) ;
#103 = FACE_OUTER_BOUND ( 'NONE', #268, .T. ) ;
#104 = ORIENTED_EDGE ( 'NONE', *, *, #272, .T. ) ;
#105 = EDGE_CURVE ( 'NONE', #150, #38, #214, .T. ) ;
#106 = ORIENTED_EDGE ( 'NONE', *, *, #13, .T. ) ;
#107 = CARTESIAN_POINT ( 'NONE',  ( 0.000000000000000000, 1200.000000000000000, 0.000000000000000000 ) ) ;
#108 = DIRECTION ( 'NONE',  ( -0.000000000000000000, 1.000000000000000000, -0.000000000000000000 ) ) ;
#109 = DIRECTION ( 'NONE',  ( -0.000000000000000000, 1.000000000000000000, -0.000000000000000000 ) ) ;
#110 = DIRECTION ( 'NONE',  ( 0.000000000000000000, 0.000000000000000000, 1.000000000000000000 ) ) ;
#111 = AXIS2_PLACEMENT_3D ( 'NONE', #51, #96, #26 ) ;
#112 = PRESENTATION_STYLE_ASSIGNMENT (( #211 ) ) ;
#113 = DIRECTION ( 'NONE',  ( 0.000000000000000000, 0.000000000000000000, 1.000000000000000000 ) ) ;
#114 = CARTESIAN_POINT ( 'NONE',  ( 0.000000000000000000, 1000.000000000000000, 678.9408294627727400 ) ) ;
#115 = FILL_AREA_STYLE_COLOUR ( '', #157 ) ;
#116 =( NAMED_UNIT ( * ) SI_UNIT ( $, .STERADIAN. ) SOLID_ANGLE_UNIT ( ) );
#117 = AXIS2_PLACEMENT_3D ( 'NONE', #43, #4, #226 ) ;
#118 = PRODUCT_DEFINITION_CONTEXT ( 'detailed design', #216, 'design' ) ;
#119 = CARTESIAN_POINT ( 'NONE',  ( 8.314627136120336649E-14, 1000.000000000000000, -678.9408294627727400 ) ) ;
#120 = VECTOR ( 'NONE', #178, 1000.000000000000000 ) ;
#121 = AXIS2_PLACEMENT_3D ( 'NONE', #86, #276, #248 ) ;
#122 = ORIENTED_EDGE ( 'NONE', *, *, #240, .F. ) ;
#123 = EDGE_CURVE ( 'NONE', #241, #170, #180, .T. ) ;
#124 = ORIENTED_EDGE ( 'NONE', *, *, #13, .F. ) ;
#125 = EDGE_LOOP ( 'NONE', ( #41, #122 ) ) ;
#126 = CIRCLE ( 'NONE', #92, 430.0000000000000000 ) ;
#127 = ORIENTED_EDGE ( 'NONE', *, *, #144, .T. ) ;
#128 = EDGE_LOOP ( 'NONE', ( #222, #267 ) ) ;
#129 = LINE ( 'NONE', #68, #243 ) ;
#130 = PRODUCT_DEFINITION_SHAPE ( 'NONE', 'NONE',  #249 ) ;
#131 = CARTESIAN_POINT ( 'NONE',  ( 0.000000000000000000, 1000.000000000000000, 0.000000000000000000 ) ) ;
#132 = AXIS2_PLACEMENT_3D ( 'NONE', #179, #158, #87 ) ;
#133 = CARTESIAN_POINT ( 'NONE',  ( 0.000000000000000000, 1000.000000000000000, 0.000000000000000000 ) ) ;
#134 = DIRECTION ( 'NONE',  ( -0.000000000000000000, 1.000000000000000000, -0.000000000000000000 ) ) ;
#135 = FACE_OUTER_BOUND ( 'NONE', #219, .T. ) ;
#136 = CIRCLE ( 'NONE', #117, 750.0000000000000000 ) ;
#137 = DIRECTION ( 'NONE',  ( 0.000000000000000000, 0.000000000000000000, 1.000000000000000000 ) ) ;
#138 = CARTESIAN_POINT ( 'NONE',  ( 0.000000000000000000, 0.000000000000000000, 430.0000000000000000 ) ) ;
#139 = SURFACE_SIDE_STYLE ('',( #93 ) ) ;
#140 = DIRECTION ( 'NONE',  ( -0.000000000000000000, 1.000000000000000000, -0.000000000000000000 ) ) ;
#141 = AXIS2_PLACEMENT_3D ( 'NONE', #154, #300, #113 ) ;
#142 = APPLICATION_PROTOCOL_DEFINITION ( 'draft international standard', 'automotive_design', 1998, #216 ) ;
#143 = DIRECTION ( 'NONE',  ( -0.000000000000000000, 1.000000000000000000, -0.000000000000000000 ) ) ;
#144 = EDGE_CURVE ( 'NONE', #296, #150, #250, .T. ) ;
#145 = EDGE_LOOP ( 'NONE', ( #17, #199 ) ) ;
#146 = AXIS2_PLACEMENT_3D ( 'NONE', #207, #89, #270 ) ;
#147 = EDGE_LOOP ( 'NONE', ( #15, #37 ) ) ;
#148 = EDGE_LOOP ( 'NONE', ( #60, #196, #195, #223 ) ) ;
#149 = EDGE_CURVE ( 'NONE', #55, #59, #136, .T. ) ;
#150 = VERTEX_POINT ( 'NONE', #3 ) ;
#151 = AXIS2_PLACEMENT_3D ( 'NONE', #25, #108, #110 ) ;
#152 = ORIENTED_EDGE ( 'NONE', *, *, #149, .F. ) ;
#153 = ADVANCED_FACE ( 'NONE', ( #45 ), #297, .T. ) ;
#154 = CARTESIAN_POINT ( 'NONE',  ( 0.000000000000000000, 1200.000000000000000, 0.000000000000000000 ) ) ;
#155 = DIRECTION ( 'NONE',  ( -0.000000000000000000, 1.000000000000000000, -0.000000000000000000 ) ) ;
#156 = DIRECTION ( 'NONE',  ( -0.000000000000000000, 1.000000000000000000, -0.000000000000000000 ) ) ;
#157 = COLOUR_RGB ( '',0.7921568627450980005, 0.8196078431372548767, 0.9333333333333333481 ) ;
#158 = DIRECTION ( 'NONE',  ( -0.000000000000000000, 1.000000000000000000, -0.000000000000000000 ) ) ;
#159 = LINE ( 'NONE', #176, #21 ) ;
#160 = CARTESIAN_POINT ( 'NONE',  ( 6.799851352265678568E-14, 30.00000000000002842, -406.5000000000000568 ) ) ;
#161 = PRODUCT_DEFINITION_FORMATION_WITH_SPECIFIED_SOURCE ( 'ANY', '', #200, .NOT_KNOWN. ) ;
#162 = DIRECTION ( 'NONE',  ( -0.000000000000000000, 1.000000000000000000, 0.000000000000000000 ) ) ;
#163 = FACE_BOUND ( 'NONE', #147, .T. ) ;
#164 = CARTESIAN_POINT ( 'NONE',  ( 0.000000000000000000, 1200.000000000000000, 0.000000000000000000 ) ) ;
#165 = AXIS2_PLACEMENT_3D ( 'NONE', #285, #76, #78 ) ;
#166 = CARTESIAN_POINT ( 'NONE',  ( 0.000000000000000000, 30.00000000000002842, 0.000000000000000000 ) ) ;
#167 =( LENGTH_UNIT ( ) NAMED_UNIT ( * ) SI_UNIT ( .MILLI., .METRE. ) );
#168 = MANIFOLD_SOLID_BREP ( 'Revolve1', #48 ) ;
#169 = EDGE_CURVE ( 'NONE', #296, #266, #260, .T. ) ;
#170 = VERTEX_POINT ( 'NONE', #114 ) ;
#171 = EDGE_CURVE ( 'NONE', #84, #82, #34, .T. ) ;
#172 = ORIENTED_EDGE ( 'NONE', *, *, #40, .F. ) ;
#173 = ORIENTED_EDGE ( 'NONE', *, *, #188, .T. ) ;
#174 = ORIENTED_EDGE ( 'NONE', *, *, #40, .T. ) ;
#175 = AXIS2_PLACEMENT_3D ( 'NONE', #107, #156, #44 ) ;
#176 = CARTESIAN_POINT ( 'NONE',  ( 0.000000000000000000, 1200.000000000000000, 704.0000000000000000 ) ) ;
#177 = CARTESIAN_POINT ( 'NONE',  ( 0.000000000000000000, 1000.000000000000000, 720.9408294627728537 ) ) ;
#178 = DIRECTION ( 'NONE',  ( 3.017918504524705549E-17, 0.9691601487667491632, -0.2464317472291519262 ) ) ;
#179 = CARTESIAN_POINT ( 'NONE',  ( 0.000000000000000000, 1000.000000000000000, 0.000000000000000000 ) ) ;
#180 = CIRCLE ( 'NONE', #287, 678.9408294627727400 ) ;
#181 = MECHANICAL_DESIGN_GEOMETRIC_PRESENTATION_REPRESENTATION (  '', ( #244 ), #209 ) ;
#182 = PLANE ( 'NONE',  #280 ) ;
#183 = CARTESIAN_POINT ( 'NONE',  ( 0.000000000000000000, 0.000000000000000000, 0.000000000000000000 ) ) ;
#184 = ADVANCED_FACE ( 'NONE', ( #163, #12 ), #231, .F. ) ;
#185 = APPLICATION_CONTEXT ( 'automotive_design' ) ;
#186 = DIRECTION ( 'NONE',  ( -0.000000000000000000, 1.000000000000000000, -0.000000000000000000 ) ) ;
#187 = STYLED_ITEM ( 'NONE', ( #47 ), #168 ) ;
#188 = EDGE_CURVE ( 'NONE', #84, #59, #281, .T. ) ;
#189 =( NAMED_UNIT ( * ) SI_UNIT ( $, .STERADIAN. ) SOLID_ANGLE_UNIT ( ) );
#190 = CARTESIAN_POINT ( 'NONE',  ( 0.000000000000000000, 0.000000000000000000, 430.0000000000000000 ) ) ;
#191 = FACE_OUTER_BOUND ( 'NONE', #35, .T. ) ;
#192 = CARTESIAN_POINT ( 'NONE',  ( 6.790304186226978427E-14, 0.000000000000000000, -430.0000000000000000 ) ) ;
#193 = CIRCLE ( 'NONE', #269, 678.9408294627727400 ) ;
#194 =( NAMED_UNIT ( * ) PLANE_ANGLE_UNIT ( ) SI_UNIT ( $, .RADIAN. ) );
#195 = ORIENTED_EDGE ( 'NONE', *, *, #63, .T. ) ;
#196 = ORIENTED_EDGE ( 'NONE', *, *, #288, .F. ) ;
#197 = CIRCLE ( 'NONE', #132, 720.9408294627728537 ) ;
#198 = ORIENTED_EDGE ( 'NONE', *, *, #123, .T. ) ;
#199 = ORIENTED_EDGE ( 'NONE', *, *, #169, .T. ) ;
#200 = PRODUCT ( 'Barro BR2', 'Barro BR2', '', ( #1 ) ) ;
#201 = ORIENTED_EDGE ( 'NONE', *, *, #272, .F. ) ;
#202 = AXIS2_PLACEMENT_3D ( 'NONE', #271, #8, #217 ) ;
#203 = CARTESIAN_POINT ( 'NONE',  ( 9.184850993605149996E-14, 1200.000000000000000, -750.0000000000000000 ) ) ;
#204 = CARTESIAN_POINT ( 'NONE',  ( 0.000000000000000000, 1200.000000000000000, 750.0000000000000000 ) ) ;
#205 = CARTESIAN_POINT ( 'NONE',  ( 0.000000000000000000, 1200.000000000000000, 704.0000000000000000 ) ) ;
#206 = ADVANCED_FACE ( 'NONE', ( #53 ), #52, .T. ) ;
#207 = CARTESIAN_POINT ( 'NONE',  ( 0.000000000000000000, 1000.000000000000000, 0.000000000000000000 ) ) ;
#208 = AXIS2_PLACEMENT_3D ( 'NONE', #261, #283, #9 ) ;
#209 =( GEOMETRIC_REPRESENTATION_CONTEXT ( 3 ) GLOBAL_UNCERTAINTY_ASSIGNED_CONTEXT ( ( #257 ) ) GLOBAL_UNIT_ASSIGNED_CONTEXT ( ( #5, #30, #189 ) ) REPRESENTATION_CONTEXT ( 'NONE', 'WORKASPACE' ) );
#210 = ADVANCED_FACE ( 'NONE', ( #99 ), #218, .F. ) ;
#211 = SURFACE_STYLE_USAGE ( .BOTH. , #139 ) ;
#212 = DIRECTION ( 'NONE',  ( 1.760871307387272458E-17, 0.9896087967918856254, -0.1437860539555780304 ) ) ;
#213 = CARTESIAN_POINT ( 'NONE',  ( 0.000000000000000000, 1000.000000000000000, 720.9408294627728537 ) ) ;
#214 = CIRCLE ( 'NONE', #175, 704.0000000000000000 ) ;
#215 = PRESENTATION_LAYER_ASSIGNMENT (  '', '', ( #244 ) ) ;
#216 = APPLICATION_CONTEXT ( 'automotive_design' ) ;
#217 = DIRECTION ( 'NONE',  ( 0.000000000000000000, 0.000000000000000000, 1.000000000000000000 ) ) ;
#218 = PLANE ( 'NONE',  #221 ) ;
#219 = EDGE_LOOP ( 'NONE', ( #101, #173, #152, #36 ) ) ;
#220 = VERTEX_POINT ( 'NONE', #190 ) ;
#221 = AXIS2_PLACEMENT_3D ( 'NONE', #256, #162, #258 ) ;
#222 = ORIENTED_EDGE ( 'NONE', *, *, #100, .F. ) ;
#223 = ORIENTED_EDGE ( 'NONE', *, *, #294, .T. ) ;
#224 = CARTESIAN_POINT ( 'NONE',  ( 9.006914892683687133E-14, 1000.000000000000000, -720.9408294627728537 ) ) ;
#225 =( GEOMETRIC_REPRESENTATION_CONTEXT ( 3 ) GLOBAL_UNCERTAINTY_ASSIGNED_CONTEXT ( ( #11 ) ) GLOBAL_UNIT_ASSIGNED_CONTEXT ( ( #253, #73, #116 ) ) REPRESENTATION_CONTEXT ( 'NONE', 'WORKASPACE' ) );
#226 = DIRECTION ( 'NONE',  ( 0.000000000000000000, 0.000000000000000000, 1.000000000000000000 ) ) ;
#227 = FILL_AREA_STYLE_COLOUR ( '', #14 ) ;
#228 = DIRECTION ( 'NONE',  ( 0.000000000000000000, -1.000000000000000000, 0.000000000000000000 ) ) ;
#229 = APPLICATION_PROTOCOL_DEFINITION ( 'draft international standard', 'automotive_design', 1998, #185 ) ;
#230 = DIRECTION ( 'NONE',  ( 0.000000000000000000, 0.000000000000000000, 1.000000000000000000 ) ) ;
#231 = PLANE ( 'NONE',  #208 ) ;
#232 = DIRECTION ( 'NONE',  ( 0.000000000000000000, 0.000000000000000000, 1.000000000000000000 ) ) ;
#233 = LINE ( 'NONE', #138, #80 ) ;
#234 = AXIS2_PLACEMENT_3D ( 'NONE', #166, #186, #259 ) ;
#235 = CARTESIAN_POINT ( 'NONE',  ( 0.000000000000000000, 30.00000000000002842, 406.5000000000000568 ) ) ;
#236 = CARTESIAN_POINT ( 'NONE',  ( 0.000000000000000000, 0.000000000000000000, 0.000000000000000000 ) ) ;
#237 = ORIENTED_EDGE ( 'NONE', *, *, #188, .F. ) ;
#238 = VECTOR ( 'NONE', #212, 1000.000000000000000 ) ;
#239 = ORIENTED_EDGE ( 'NONE', *, *, #105, .T. ) ;
#240 = EDGE_CURVE ( 'NONE', #263, #220, #126, .T. ) ;
#241 = VERTEX_POINT ( 'NONE', #119 ) ;
#242 = ORIENTED_EDGE ( 'NONE', *, *, #240, .T. ) ;
#243 = VECTOR ( 'NONE', #64, 1000.000000000000000 ) ;
#244 = STYLED_ITEM ( 'NONE', ( #112 ), #273 ) ;
#245 = ORIENTED_EDGE ( 'NONE', *, *, #171, .T. ) ;
#246 = CARTESIAN_POINT ( 'NONE',  ( 406.5000000000000568, 29.99999999999997868, 0.000000000000000000 ) ) ;
#247 = CARTESIAN_POINT ( 'NONE',  ( 8.621513465997365790E-14, 1200.000000000000000, -704.0000000000000000 ) ) ;
#248 = DIRECTION ( 'NONE',  ( 0.000000000000000000, 0.000000000000000000, 1.000000000000000000 ) ) ;
#249 = PRODUCT_DEFINITION ( 'UNKNOWN', '', #161, #118 ) ;
#250 = LINE ( 'NONE', #247, #120 ) ;
#251 = SURFACE_STYLE_USAGE ( .BOTH. , #69 ) ;
#252 = AXIS2_PLACEMENT_3D ( 'NONE', #293, #134, #20 ) ;
#253 =( LENGTH_UNIT ( ) NAMED_UNIT ( * ) SI_UNIT ( .MILLI., .METRE. ) );
#254 = CONICAL_SURFACE ( 'NONE', #141, 704.0000000000000000, 0.2489967228692762935 ) ;
#255 = AXIS2_PLACEMENT_3D ( 'NONE', #164, #278, #71 ) ;
#256 = CARTESIAN_POINT ( 'NONE',  ( 0.000000000000000000, 0.000000000000000000, 0.000000000000000000 ) ) ;
#257 = UNCERTAINTY_MEASURE_WITH_UNIT (LENGTH_MEASURE( 1.000000000000000082E-05 ), #5, 'distance_accuracy_value', 'NONE');
#258 = DIRECTION ( 'NONE',  ( 0.000000000000000000, 0.000000000000000000, 1.000000000000000000 ) ) ;
#259 = DIRECTION ( 'NONE',  ( 0.000000000000000000, 0.000000000000000000, 1.000000000000000000 ) ) ;
#260 = CIRCLE ( 'NONE', #202, 406.5000000000000568 ) ;
#261 = CARTESIAN_POINT ( 'NONE',  ( 750.0000000000000000, 1200.000000000000000, 0.000000000000000000 ) ) ;
#262 = ADVANCED_FACE ( 'NONE', ( #191 ), #292, .T. ) ;
#263 = VERTEX_POINT ( 'NONE', #192 ) ;
#264 = AXIS2_PLACEMENT_3D ( 'NONE', #236, #143, #137 ) ;
#265 = PRODUCT_RELATED_PRODUCT_CATEGORY ( 'part', '', ( #200 ) ) ;
#266 = VERTEX_POINT ( 'NONE', #235 ) ;
#267 = ORIENTED_EDGE ( 'NONE', *, *, #171, .F. ) ;
#268 = EDGE_LOOP ( 'NONE', ( #57, #127, #239, #19 ) ) ;
#269 = AXIS2_PLACEMENT_3D ( 'NONE', #131, #298, #88 ) ;
#270 = DIRECTION ( 'NONE',  ( 0.000000000000000000, 0.000000000000000000, 1.000000000000000000 ) ) ;
#271 = CARTESIAN_POINT ( 'NONE',  ( 0.000000000000000000, 30.00000000000002842, 0.000000000000000000 ) ) ;
#272 = EDGE_CURVE ( 'NONE', #220, #170, #233, .T. ) ;
#273 = ADVANCED_BREP_SHAPE_REPRESENTATION ( 'Barro BR2', ( #168, #111 ), #275 ) ;
#274 = AXIS2_PLACEMENT_3D ( 'NONE', #62, #109, #230 ) ;
#275 =( GEOMETRIC_REPRESENTATION_CONTEXT ( 3 ) GLOBAL_UNCERTAINTY_ASSIGNED_CONTEXT ( ( #95 ) ) GLOBAL_UNIT_ASSIGNED_CONTEXT ( ( #167, #194, #54 ) ) REPRESENTATION_CONTEXT ( 'NONE', 'WORKASPACE' ) );
#276 = DIRECTION ( 'NONE',  ( -0.000000000000000000, 1.000000000000000000, -0.000000000000000000 ) ) ;
#277 = FILL_AREA_STYLE ('',( #227 ) ) ;
#278 = DIRECTION ( 'NONE',  ( -0.000000000000000000, 1.000000000000000000, -0.000000000000000000 ) ) ;
#279 = SHAPE_DEFINITION_REPRESENTATION ( #130, #273 ) ;
#280 = AXIS2_PLACEMENT_3D ( 'NONE', #246, #228, #299 ) ;
#281 = LINE ( 'NONE', #286, #238 ) ;
#282 = CIRCLE ( 'NONE', #255, 704.0000000000000000 ) ;
#283 = DIRECTION ( 'NONE',  ( 0.000000000000000000, -1.000000000000000000, 0.000000000000000000 ) ) ;
#284 = EDGE_CURVE ( 'NONE', #82, #55, #6, .T. ) ;
#285 = CARTESIAN_POINT ( 'NONE',  ( 678.9408294627727400, 1000.000000000000000, 0.000000000000000000 ) ) ;
#286 = CARTESIAN_POINT ( 'NONE',  ( 8.828978791762226795E-14, 1000.000000000000000, -720.9408294627728537 ) ) ;
#287 = AXIS2_PLACEMENT_3D ( 'NONE', #133, #155, #22 ) ;
#288 = EDGE_CURVE ( 'NONE', #266, #296, #66, .T. ) ;
#289 = EDGE_LOOP ( 'NONE', ( #102, #174 ) ) ;
#290 = ADVANCED_FACE ( 'NONE', ( #94, #75 ), #97, .F. ) ;
#291 = ORIENTED_EDGE ( 'NONE', *, *, #123, .F. ) ;
#292 = CONICAL_SURFACE ( 'NONE', #31, 430.0000000000000000, 0.2439815485717633514 ) ;
#293 = CARTESIAN_POINT ( 'NONE',  ( 0.000000000000000000, 1200.000000000000000, 0.000000000000000000 ) ) ;
#294 = EDGE_CURVE ( 'NONE', #38, #150, #282, .T. ) ;
#295 = EDGE_LOOP ( 'NONE', ( #79, #106, #81, #201 ) ) ;
#296 = VERTEX_POINT ( 'NONE', #160 ) ;
#297 = CONICAL_SURFACE ( 'NONE', #151, 720.9408294627728537, 0.1442861699991387081 ) ;
#298 = DIRECTION ( 'NONE',  ( -0.000000000000000000, 1.000000000000000000, -0.000000000000000000 ) ) ;
#299 = DIRECTION ( 'NONE',  ( 0.000000000000000000, -0.000000000000000000, -1.000000000000000000 ) ) ;
#300 = DIRECTION ( 'NONE',  ( -0.000000000000000000, 1.000000000000000000, -0.000000000000000000 ) ) ;
ENDSEC;
END-ISO-10303-21;
