ISO-10303-21;
HEADER;
FILE_DESCRIPTION (( 'STEP AP214' ),
    '1' );
FILE_NAME ('BS2.STEP',
    '2021-04-21T11:46:09',
    ( '' ),
    ( '' ),
    'SwSTEP 2.0',
    'SolidWorks 2020',
    '' );
FILE_SCHEMA (( 'AUTOMOTIVE_DESIGN' ));
ENDSEC;

DATA;
#1 = CARTESIAN_POINT ( 'NONE',  ( 0.000000000000000000, 903.0000000000000000, 0.000000000000000000 ) ) ;
#2 = VECTOR ( 'NONE', #73, 1000.000000000000114 ) ;
#3 = DIRECTION ( 'NONE',  ( 0.000000000000000000, 0.000000000000000000, -1.000000000000000000 ) ) ;
#4 =( LENGTH_UNIT ( ) NAMED_UNIT ( * ) SI_UNIT ( .MILLI., .METRE. ) );
#5 = APPLICATION_CONTEXT ( 'automotive_design' ) ;
#6 = DIRECTION ( 'NONE',  ( 0.000000000000000000, 0.000000000000000000, -1.000000000000000000 ) ) ;
#7 = ORIENTED_EDGE ( 'NONE', *, *, #285, .T. ) ;
#8 = EDGE_CURVE ( 'NONE', #192, #198, #217, .T. ) ;
#9 = PLANE ( 'NONE',  #279 ) ;
#10 = APPLICATION_PROTOCOL_DEFINITION ( 'draft international standard', 'automotive_design', 1998, #5 ) ;
#11 = CYLINDRICAL_SURFACE ( 'NONE', #45, 300.0000000000000000 ) ;
#12 = EDGE_CURVE ( 'NONE', #163, #364, #165, .T. ) ;
#13 = AXIS2_PLACEMENT_3D ( 'NONE', #31, #140, #6 ) ;
#14 = AXIS2_PLACEMENT_3D ( 'NONE', #57, #371, #110 ) ;
#15 = CONICAL_SURFACE ( 'NONE', #14, 269.9999999999999432, 0.1621092724555080467 ) ;
#16 = LINE ( 'NONE', #246, #2 ) ;
#17 = LINE ( 'NONE', #274, #320 ) ;
#18 = ORIENTED_EDGE ( 'NONE', *, *, #152, .F. ) ;
#19 = AXIS2_PLACEMENT_3D ( 'NONE', #242, #68, #360 ) ;
#20 = MECHANICAL_DESIGN_GEOMETRIC_PRESENTATION_REPRESENTATION (  '', ( #186 ), #157 ) ;
#21 = EDGE_CURVE ( 'NONE', #168, #200, #126, .T. ) ;
#22 = CYLINDRICAL_SURFACE ( 'NONE', #321, 689.9333303701070008 ) ;
#23 = ADVANCED_FACE ( 'NONE', ( #234 ), #174, .T. ) ;
#24 = APPLICATION_CONTEXT ( 'automotive_design' ) ;
#25 = ORIENTED_EDGE ( 'NONE', *, *, #266, .F. ) ;
#26 = DIRECTION ( 'NONE',  ( 0.000000000000000000, 0.000000000000000000, -1.000000000000000000 ) ) ;
#27 = ORIENTED_EDGE ( 'NONE', *, *, #293, .F. ) ;
#28 = DIRECTION ( 'NONE',  ( -0.000000000000000000, -1.000000000000000000, -0.000000000000000000 ) ) ;
#29 = ORIENTED_EDGE ( 'NONE', *, *, #21, .T. ) ;
#30 = CARTESIAN_POINT ( 'NONE',  ( 0.000000000000000000, 72.80183088614322173, 0.000000000000000000 ) ) ;
#31 = CARTESIAN_POINT ( 'NONE',  ( 0.000000000000000000, 72.80183088614322173, 0.000000000000000000 ) ) ;
#32 = LINE ( 'NONE', #226, #194 ) ;
#33 = CARTESIAN_POINT ( 'NONE',  ( 0.000000000000000000, 0.000000000000000000, 0.000000000000000000 ) ) ;
#34 = VERTEX_POINT ( 'NONE', #268 ) ;
#35 = AXIS2_PLACEMENT_3D ( 'NONE', #86, #80, #26 ) ;
#36 = SURFACE_SIDE_STYLE ('',( #300 ) ) ;
#37 = ADVANCED_FACE ( 'NONE', ( #58 ), #318, .T. ) ;
#38 = CARTESIAN_POINT ( 'NONE',  ( 0.000000000000000000, 51.29054249703202117, 0.000000000000000000 ) ) ;
#39 = FILL_AREA_STYLE_COLOUR ( '', #55 ) ;
#40 = ORIENTED_EDGE ( 'NONE', *, *, #195, .T. ) ;
#41 = DIRECTION ( 'NONE',  ( -0.000000000000000000, -1.000000000000000000, -0.000000000000000000 ) ) ;
#42 = AXIS2_PLACEMENT_3D ( 'NONE', #137, #257, #262 ) ;
#43 = EDGE_CURVE ( 'NONE', #108, #267, #229, .T. ) ;
#44 = DIRECTION ( 'NONE',  ( -0.000000000000000000, -1.000000000000000000, -0.000000000000000000 ) ) ;
#45 = AXIS2_PLACEMENT_3D ( 'NONE', #167, #41, #129 ) ;
#46 = EDGE_CURVE ( 'NONE', #142, #34, #286, .T. ) ;
#47 = DIRECTION ( 'NONE',  ( 1.000000000000000000, 0.000000000000000000, -1.224646799147353207E-16 ) ) ;
#48 = ORIENTED_EDGE ( 'NONE', *, *, #170, .T. ) ;
#49 = DIRECTION ( 'NONE',  ( -1.224646799147353207E-16, 0.000000000000000000, -1.000000000000000000 ) ) ;
#50 = AXIS2_PLACEMENT_3D ( 'NONE', #359, #218, #324 ) ;
#51 = DIRECTION ( 'NONE',  ( 1.000000000000000000, 0.000000000000000000, -1.224646799147353207E-16 ) ) ;
#52 = CARTESIAN_POINT ( 'NONE',  ( 0.000000000000000000, 400.0000000000000000, 0.000000000000000000 ) ) ;
#53 = DIRECTION ( 'NONE',  ( 1.000000000000000000, 0.000000000000000000, 0.000000000000000000 ) ) ;
#54 = DIRECTION ( 'NONE',  ( 1.000000000000000000, 0.000000000000000000, 0.000000000000000000 ) ) ;
#55 = COLOUR_RGB ( '',0.7921568627450980005, 0.8196078431372548767, 0.9333333333333333481 ) ;
#56 = CARTESIAN_POINT ( 'NONE',  ( 8.449246446628249094E-14, 0.000000000000000000, 689.9333303701070008 ) ) ;
#57 = CARTESIAN_POINT ( 'NONE',  ( 0.000000000000000000, 72.80183088614322173, 0.000000000000000000 ) ) ;
#58 = FACE_OUTER_BOUND ( 'NONE', #171, .T. ) ;
#59 = DIRECTION ( 'NONE',  ( 0.000000000000000000, 0.000000000000000000, -1.000000000000000000 ) ) ;
#60 = CARTESIAN_POINT ( 'NONE',  ( 0.000000000000000000, 903.0000000000000000, 0.000000000000000000 ) ) ;
#61 =( NAMED_UNIT ( * ) SI_UNIT ( $, .STERADIAN. ) SOLID_ANGLE_UNIT ( ) );
#62 = AXIS2_PLACEMENT_3D ( 'NONE', #330, #51, #244 ) ;
#63 = COLOUR_RGB ( '',0.7921568627450980005, 0.8196078431372548767, 0.9333333333333333481 ) ;
#64 = ORIENTED_EDGE ( 'NONE', *, *, #195, .F. ) ;
#65 = PRESENTATION_LAYER_ASSIGNMENT (  '', '', ( #336 ) ) ;
#66 = VERTEX_POINT ( 'NONE', #119 ) ;
#67 = PRODUCT ( 'BS2', 'BS2', '', ( #235 ) ) ;
#68 = DIRECTION ( 'NONE',  ( 0.000000000000000000, 1.000000000000000000, 0.000000000000000000 ) ) ;
#69 = CARTESIAN_POINT ( 'NONE',  ( 9.184034526116661245E-14, 400.0000000000002274, 749.9333303701070008 ) ) ;
#70 = CIRCLE ( 'NONE', #136, 300.0000000000000000 ) ;
#71 = EDGE_CURVE ( 'NONE', #66, #108, #106, .T. ) ;
#72 = AXIS2_PLACEMENT_3D ( 'NONE', #367, #340, #112 ) ;
#73 = DIRECTION ( 'NONE',  ( 0.000000000000000000, 0.9868890420187038659, 0.1614001819807051319 ) ) ;
#74 = EDGE_LOOP ( 'NONE', ( #319, #223 ) ) ;
#75 = DIRECTION ( 'NONE',  ( 0.000000000000000000, 0.000000000000000000, -1.000000000000000000 ) ) ;
#76 = EDGE_CURVE ( 'NONE', #200, #34, #128, .T. ) ;
#77 = EDGE_LOOP ( 'NONE', ( #331, #130 ) ) ;
#78 = CARTESIAN_POINT ( 'NONE',  ( 0.000000000000000000, 368.0972054247493475, 0.000000000000000000 ) ) ;
#79 = ORIENTED_EDGE ( 'NONE', *, *, #8, .F. ) ;
#80 = DIRECTION ( 'NONE',  ( -0.000000000000000000, -1.000000000000000000, -0.000000000000000000 ) ) ;
#81 = FACE_OUTER_BOUND ( 'NONE', #322, .T. ) ;
#82 = ORIENTED_EDGE ( 'NONE', *, *, #46, .T. ) ;
#83 = CARTESIAN_POINT ( 'NONE',  ( 0.000000000000000000, 903.0000000000000000, 0.000000000000000000 ) ) ;
#84 = PRODUCT_DEFINITION ( 'UNKNOWN', '', #207, #153 ) ;
#85 = ORIENTED_EDGE ( 'NONE', *, *, #245, .F. ) ;
#86 = CARTESIAN_POINT ( 'NONE',  ( 0.000000000000000000, 30.00000000000002842, 0.000000000000000000 ) ) ;
#87 = AXIS2_PLACEMENT_3D ( 'NONE', #30, #228, #175 ) ;
#88 = VERTEX_POINT ( 'NONE', #212 ) ;
#89 = DIRECTION ( 'NONE',  ( 0.000000000000000000, 0.000000000000000000, -1.000000000000000000 ) ) ;
#90 = ORIENTED_EDGE ( 'NONE', *, *, #273, .T. ) ;
#91 = SURFACE_STYLE_USAGE ( .BOTH. , #213 ) ;
#92 = ORIENTED_EDGE ( 'NONE', *, *, #193, .T. ) ;
#93 =( NAMED_UNIT ( * ) PLANE_ANGLE_UNIT ( ) SI_UNIT ( $, .RADIAN. ) );
#94 = ORIENTED_EDGE ( 'NONE', *, *, #350, .F. ) ;
#95 =( LENGTH_UNIT ( ) NAMED_UNIT ( * ) SI_UNIT ( .MILLI., .METRE. ) );
#96 = DIRECTION ( 'NONE',  ( -0.000000000000000000, -1.000000000000000000, -0.000000000000000000 ) ) ;
#97 = CARTESIAN_POINT ( 'NONE',  ( 0.000000000000000000, 903.0000000000000000, 0.000000000000000000 ) ) ;
#98 = AXIS2_PLACEMENT_3D ( 'NONE', #134, #139, #312 ) ;
#99 = CARTESIAN_POINT ( 'NONE',  ( 3.263683719727696116E-14, 30.00000000000002842, -263.0000000000000000 ) ) ;
#100 = AXIS2_PLACEMENT_3D ( 'NONE', #83, #54, #342 ) ;
#101 = DIRECTION ( 'NONE',  ( -1.000000000000000000, 0.000000000000000000, 0.000000000000000000 ) ) ;
#102 = ORIENTED_EDGE ( 'NONE', *, *, #245, .T. ) ;
#103 = SPHERICAL_SURFACE ( 'NONE', #354, 873.0000000000000000 ) ;
#104 = ORIENTED_EDGE ( 'NONE', *, *, #265, .F. ) ;
#105 = DIRECTION ( 'NONE',  ( -0.000000000000000000, -1.000000000000000000, -0.000000000000000000 ) ) ;
#106 = CIRCLE ( 'NONE', #185, 689.9333303701070008 ) ;
#107 = DIRECTION ( 'NONE',  ( -1.000000000000000000, 0.000000000000000000, 0.000000000000000000 ) ) ;
#108 = VERTEX_POINT ( 'NONE', #219 ) ;
#109 = ADVANCED_FACE ( 'NONE', ( #191 ), #103, .F. ) ;
#110 = DIRECTION ( 'NONE',  ( 0.000000000000000000, 0.000000000000000000, 1.000000000000000000 ) ) ;
#111 = DIRECTION ( 'NONE',  ( 0.000000000000000000, 0.000000000000000000, -1.000000000000000000 ) ) ;
#112 = DIRECTION ( 'NONE',  ( 0.000000000000000000, 0.000000000000000000, -1.000000000000000000 ) ) ;
#113 = EDGE_LOOP ( 'NONE', ( #27, #121, #329, #25 ) ) ;
#114 = LINE ( 'NONE', #197, #248 ) ;
#115 = AXIS2_PLACEMENT_3D ( 'NONE', #161, #101, #353 ) ;
#116 = ADVANCED_FACE ( 'NONE', ( #247 ), #275, .T. ) ;
#117 = ORIENTED_EDGE ( 'NONE', *, *, #266, .T. ) ;
#118 = CARTESIAN_POINT ( 'NONE',  ( 0.000000000000000000, 51.29054249703202117, -300.0000000000000000 ) ) ;
#119 = CARTESIAN_POINT ( 'NONE',  ( 0.000000000000000000, 400.0000000000000000, -689.9333303701070008 ) ) ;
#120 =( NAMED_UNIT ( * ) PLANE_ANGLE_UNIT ( ) SI_UNIT ( $, .RADIAN. ) );
#121 = ORIENTED_EDGE ( 'NONE', *, *, #43, .T. ) ;
#122 = CARTESIAN_POINT ( 'NONE',  ( 0.000000000000000000, 0.000000000000000000, 0.000000000000000000 ) ) ;
#123 = CARTESIAN_POINT ( 'NONE',  ( 0.000000000000000000, 400.0000000000001137, -689.9333303701070008 ) ) ;
#124 = APPLICATION_PROTOCOL_DEFINITION ( 'draft international standard', 'automotive_design', 1998, #24 ) ;
#125 = FACE_OUTER_BOUND ( 'NONE', #221, .T. ) ;
#126 = CIRCLE ( 'NONE', #180, 263.0000000000000000 ) ;
#127 = CIRCLE ( 'NONE', #188, 749.9333303701071145 ) ;
#128 = LINE ( 'NONE', #187, #178 ) ;
#129 = DIRECTION ( 'NONE',  ( 0.000000000000000000, 0.000000000000000000, -1.000000000000000000 ) ) ;
#130 = ORIENTED_EDGE ( 'NONE', *, *, #303, .F. ) ;
#131 = CLOSED_SHELL ( 'NONE', ( #343, #109, #357, #325, #337, #23, #159, #37, #215, #206, #302, #316, #116 ) ) ;
#132 = CARTESIAN_POINT ( 'NONE',  ( 5.877896402163050309E-14, 72.80183088614322173, 269.9999999999999432 ) ) ;
#133 = ORIENTED_EDGE ( 'NONE', *, *, #220, .T. ) ;
#134 = CARTESIAN_POINT ( 'NONE',  ( 0.000000000000000000, 0.000000000000000000, 0.000000000000000000 ) ) ;
#135 = EDGE_LOOP ( 'NONE', ( #18, #276, #7, #348 ) ) ;
#136 = AXIS2_PLACEMENT_3D ( 'NONE', #230, #314, #284 ) ;
#137 = CARTESIAN_POINT ( 'NONE',  ( 0.000000000000000000, 0.000000000000000000, 0.000000000000000000 ) ) ;
#138 = ORIENTED_EDGE ( 'NONE', *, *, #76, .F. ) ;
#139 = DIRECTION ( 'NONE',  ( -0.000000000000000000, -1.000000000000000000, -0.000000000000000000 ) ) ;
#140 = DIRECTION ( 'NONE',  ( -0.000000000000000000, -1.000000000000000000, -0.000000000000000000 ) ) ;
#141 = EDGE_CURVE ( 'NONE', #267, #142, #295, .T. ) ;
#142 = VERTEX_POINT ( 'NONE', #132 ) ;
#143 = SURFACE_STYLE_FILL_AREA ( #309 ) ;
#144 = AXIS2_PLACEMENT_3D ( 'NONE', #52, #105, #338 ) ;
#145 = AXIS2_PLACEMENT_3D ( 'NONE', #122, #240, #298 ) ;
#146 = DIRECTION ( 'NONE',  ( 1.000000000000000000, 0.000000000000000000, 0.000000000000000000 ) ) ;
#147 = UNCERTAINTY_MEASURE_WITH_UNIT (LENGTH_MEASURE( 1.000000000000000082E-05 ), #148, 'distance_accuracy_value', 'NONE');
#148 =( LENGTH_UNIT ( ) NAMED_UNIT ( * ) SI_UNIT ( .MILLI., .METRE. ) );
#149 = ORIENTED_EDGE ( 'NONE', *, *, #43, .F. ) ;
#150 =( NAMED_UNIT ( * ) SI_UNIT ( $, .STERADIAN. ) SOLID_ANGLE_UNIT ( ) );
#151 = CARTESIAN_POINT ( 'NONE',  ( 0.000000000000000000, 30.00000000000002842, 0.000000000000000000 ) ) ;
#152 = EDGE_CURVE ( 'NONE', #163, #198, #17, .T. ) ;
#153 = PRODUCT_DEFINITION_CONTEXT ( 'detailed design', #24, 'design' ) ;
#154 = VECTOR ( 'NONE', #347, 1000.000000000000000 ) ;
#155 = AXIS2_PLACEMENT_3D ( 'NONE', #210, #272, #75 ) ;
#156 = CARTESIAN_POINT ( 'NONE',  ( 0.000000000000000000, 400.0000000000002274, -749.9333303701070008 ) ) ;
#157 =( GEOMETRIC_REPRESENTATION_CONTEXT ( 3 ) GLOBAL_UNCERTAINTY_ASSIGNED_CONTEXT ( ( #232 ) ) GLOBAL_UNIT_ASSIGNED_CONTEXT ( ( #4, #120, #61 ) ) REPRESENTATION_CONTEXT ( 'NONE', 'WORKASPACE' ) );
#158 = PRESENTATION_STYLE_ASSIGNMENT (( #269 ) ) ;
#159 = ADVANCED_FACE ( 'NONE', ( #249 ), #11, .T. ) ;
#160 = PRESENTATION_LAYER_ASSIGNMENT (  '', '', ( #186 ) ) ;
#161 = CARTESIAN_POINT ( 'NONE',  ( 0.000000000000000000, 903.0000000000000000, 0.000000000000000000 ) ) ;
#162 = DIRECTION ( 'NONE',  ( 1.976582162444708597E-17, 0.9868890420187038659, -0.1614001819807051319 ) ) ;
#163 = VERTEX_POINT ( 'NONE', #299 ) ;
#164 = DIRECTION ( 'NONE',  ( -0.000000000000000000, -1.000000000000000000, -0.000000000000000000 ) ) ;
#165 = CIRCLE ( 'NONE', #278, 300.0000000000000000 ) ;
#166 = AXIS2_PLACEMENT_3D ( 'NONE', #78, #44, #304 ) ;
#167 = CARTESIAN_POINT ( 'NONE',  ( 0.000000000000000000, 0.000000000000000000, 0.000000000000000000 ) ) ;
#168 = VERTEX_POINT ( 'NONE', #363 ) ;
#169 = CARTESIAN_POINT ( 'NONE',  ( 0.000000000000000000, 400.0000000000002274, 0.000000000000000000 ) ) ;
#170 = EDGE_CURVE ( 'NONE', #182, #364, #233, .T. ) ;
#171 = EDGE_LOOP ( 'NONE', ( #290, #287, #48, #256 ) ) ;
#172 = DIRECTION ( 'NONE',  ( -0.000000000000000000, -1.000000000000000000, -0.000000000000000000 ) ) ;
#173 = DIRECTION ( 'NONE',  ( -0.000000000000000000, -1.000000000000000000, -0.000000000000000000 ) ) ;
#174 = PLANE ( 'NONE',  #333 ) ;
#175 = DIRECTION ( 'NONE',  ( 0.000000000000000000, 0.000000000000000000, -1.000000000000000000 ) ) ;
#176 = ORIENTED_EDGE ( 'NONE', *, *, #265, .T. ) ;
#177 = ORIENTED_EDGE ( 'NONE', *, *, #76, .T. ) ;
#178 = VECTOR ( 'NONE', #162, 1000.000000000000114 ) ;
#179 =( NAMED_UNIT ( * ) PLANE_ANGLE_UNIT ( ) SI_UNIT ( $, .RADIAN. ) );
#180 = AXIS2_PLACEMENT_3D ( 'NONE', #151, #349, #3 ) ;
#181 = AXIS2_PLACEMENT_3D ( 'NONE', #291, #253, #317 ) ;
#182 = VERTEX_POINT ( 'NONE', #156 ) ;
#183 = EDGE_LOOP ( 'NONE', ( #205, #294, #82, #104 ) ) ;
#184 = DIRECTION ( 'NONE',  ( 0.000000000000000000, 0.000000000000000000, -1.000000000000000000 ) ) ;
#185 = AXIS2_PLACEMENT_3D ( 'NONE', #352, #164, #184 ) ;
#186 = STYLED_ITEM ( 'NONE', ( #209 ), #358 ) ;
#187 = CARTESIAN_POINT ( 'NONE',  ( 3.306546357697853418E-14, 72.80183088614322173, -269.9999999999999432 ) ) ;
#188 = AXIS2_PLACEMENT_3D ( 'NONE', #169, #282, #89 ) ;
#189 = FACE_OUTER_BOUND ( 'NONE', #372, .T. ) ;
#190 = DIRECTION ( 'NONE',  ( 0.000000000000000000, -0.000000000000000000, 1.000000000000000000 ) ) ;
#191 = FACE_OUTER_BOUND ( 'NONE', #183, .T. ) ;
#192 = VERTEX_POINT ( 'NONE', #301 ) ;
#193 = EDGE_CURVE ( 'NONE', #168, #142, #16, .T. ) ;
#194 = VECTOR ( 'NONE', #28, 1000.000000000000000 ) ;
#195 = EDGE_CURVE ( 'NONE', #182, #208, #214, .T. ) ;
#196 = SPHERICAL_SURFACE ( 'NONE', #100, 873.0000000000000000 ) ;
#197 = CARTESIAN_POINT ( 'NONE',  ( 0.000000000000000000, 0.000000000000000000, -300.0000000000000000 ) ) ;
#198 = VERTEX_POINT ( 'NONE', #277 ) ;
#199 = FACE_OUTER_BOUND ( 'NONE', #113, .T. ) ;
#200 = VERTEX_POINT ( 'NONE', #99 ) ;
#201 = DIRECTION ( 'NONE',  ( 0.000000000000000000, 0.000000000000000000, -1.000000000000000000 ) ) ;
#202 = ORIENTED_EDGE ( 'NONE', *, *, #350, .T. ) ;
#203 = FACE_OUTER_BOUND ( 'NONE', #369, .T. ) ;
#204 = EDGE_LOOP ( 'NONE', ( #237, #366, #176, #202 ) ) ;
#205 = ORIENTED_EDGE ( 'NONE', *, *, #254, .F. ) ;
#206 = ADVANCED_FACE ( 'NONE', ( #189 ), #328, .F. ) ;
#207 = PRODUCT_DEFINITION_FORMATION_WITH_SPECIFIED_SOURCE ( 'ANY', '', #67, .NOT_KNOWN. ) ;
#208 = VERTEX_POINT ( 'NONE', #69 ) ;
#209 = PRESENTATION_STYLE_ASSIGNMENT (( #91 ) ) ;
#210 = CARTESIAN_POINT ( 'NONE',  ( 0.000000000000000000, 0.000000000000000000, 0.000000000000000000 ) ) ;
#211 =( NAMED_UNIT ( * ) SI_UNIT ( $, .STERADIAN. ) SOLID_ANGLE_UNIT ( ) );
#212 = CARTESIAN_POINT ( 'NONE',  ( 0.000000000000000000, 368.0972054247493475, -689.9333303701070008 ) ) ;
#213 = SURFACE_SIDE_STYLE ('',( #143 ) ) ;
#214 = CIRCLE ( 'NONE', #50, 749.9333303701071145 ) ;
#215 = ADVANCED_FACE ( 'NONE', ( #216, #125 ), #9, .T. ) ;
#216 = FACE_BOUND ( 'NONE', #74, .T. ) ;
#217 = CIRCLE ( 'NONE', #255, 300.0000000000000000 ) ;
#218 = DIRECTION ( 'NONE',  ( -0.000000000000000000, -1.000000000000000000, -0.000000000000000000 ) ) ;
#219 = CARTESIAN_POINT ( 'NONE',  ( 8.449246446628249094E-14, 400.0000000000000000, 689.9333303701070008 ) ) ;
#220 = EDGE_CURVE ( 'NONE', #88, #267, #270, .T. ) ;
#221 = EDGE_LOOP ( 'NONE', ( #64, #252 ) ) ;
#222 = DIRECTION ( 'NONE',  ( 0.000000000000000000, 0.000000000000000000, 1.000000000000000000 ) ) ;
#223 = ORIENTED_EDGE ( 'NONE', *, *, #293, .T. ) ;
#224 = CIRCLE ( 'NONE', #87, 269.9999999999999432 ) ;
#225 = AXIS2_PLACEMENT_3D ( 'NONE', #326, #47, #49 ) ;
#226 = CARTESIAN_POINT ( 'NONE',  ( 0.000000000000000000, 0.000000000000000000, -689.9333303701070008 ) ) ;
#227 = ORIENTED_EDGE ( 'NONE', *, *, #303, .T. ) ;
#228 = DIRECTION ( 'NONE',  ( -0.000000000000000000, -1.000000000000000000, -0.000000000000000000 ) ) ;
#229 = LINE ( 'NONE', #56, #154 ) ;
#230 = CARTESIAN_POINT ( 'NONE',  ( 0.000000000000000000, 51.29054249703202117, 0.000000000000000000 ) ) ;
#231 = ORIENTED_EDGE ( 'NONE', *, *, #170, .F. ) ;
#232 = UNCERTAINTY_MEASURE_WITH_UNIT (LENGTH_MEASURE( 1.000000000000000082E-05 ), #4, 'distance_accuracy_value', 'NONE');
#233 = CIRCLE ( 'NONE', #115, 903.0000000000000000 ) ;
#234 = FACE_OUTER_BOUND ( 'NONE', #263, .T. ) ;
#235 = PRODUCT_CONTEXT ( 'NONE', #5, 'mechanical' ) ;
#236 = PRODUCT_RELATED_PRODUCT_CATEGORY ( 'part', '', ( #67 ) ) ;
#237 = ORIENTED_EDGE ( 'NONE', *, *, #141, .F. ) ;
#238 = EDGE_CURVE ( 'NONE', #208, #163, #368, .T. ) ;
#239 = DIRECTION ( 'NONE',  ( -0.000000000000000000, -1.000000000000000000, -0.000000000000000000 ) ) ;
#240 = DIRECTION ( 'NONE',  ( 0.000000000000000000, 0.000000000000000000, 1.000000000000000000 ) ) ;
#241 = CIRCLE ( 'NONE', #72, 689.9333303701070008 ) ;
#242 = CARTESIAN_POINT ( 'NONE',  ( 0.000000000000000000, 30.00000000000008171, 0.000000000000000000 ) ) ;
#243 = SHAPE_DEFINITION_REPRESENTATION ( #271, #370 ) ;
#244 = DIRECTION ( 'NONE',  ( -1.224646799147353207E-16, 0.000000000000000000, -1.000000000000000000 ) ) ;
#245 = EDGE_CURVE ( 'NONE', #364, #163, #70, .T. ) ;
#246 = CARTESIAN_POINT ( 'NONE',  ( 0.000000000000000000, 72.80183088614322173, 269.9999999999999432 ) ) ;
#247 = FACE_OUTER_BOUND ( 'NONE', #77, .T. ) ;
#248 = VECTOR ( 'NONE', #172, 1000.000000000000000 ) ;
#249 = FACE_OUTER_BOUND ( 'NONE', #135, .T. ) ;
#250 = EDGE_CURVE ( 'NONE', #208, #182, #127, .T. ) ;
#251 = FILL_AREA_STYLE_COLOUR ( '', #63 ) ;
#252 = ORIENTED_EDGE ( 'NONE', *, *, #250, .F. ) ;
#253 = DIRECTION ( 'NONE',  ( 0.000000000000000000, 1.000000000000000000, 0.000000000000000000 ) ) ;
#254 = EDGE_CURVE ( 'NONE', #267, #88, #241, .T. ) ;
#255 = AXIS2_PLACEMENT_3D ( 'NONE', #315, #313, #292 ) ;
#256 = ORIENTED_EDGE ( 'NONE', *, *, #12, .F. ) ;
#257 = DIRECTION ( 'NONE',  ( -0.000000000000000000, -1.000000000000000000, -0.000000000000000000 ) ) ;
#258 = ORIENTED_EDGE ( 'NONE', *, *, #238, .T. ) ;
#259 = UNCERTAINTY_MEASURE_WITH_UNIT (LENGTH_MEASURE( 1.000000000000000082E-05 ), #95, 'distance_accuracy_value', 'NONE');
#260 = CARTESIAN_POINT ( 'NONE',  ( 0.000000000000000000, 903.0000000000000000, 0.000000000000000000 ) ) ;
#261 = EDGE_LOOP ( 'NONE', ( #138, #227, #92, #94 ) ) ;
#262 = DIRECTION ( 'NONE',  ( 0.000000000000000000, 0.000000000000000000, -1.000000000000000000 ) ) ;
#263 = EDGE_LOOP ( 'NONE', ( #339, #90 ) ) ;
#264 = AXIS2_PLACEMENT_3D ( 'NONE', #1, #107, #222 ) ;
#265 = EDGE_CURVE ( 'NONE', #88, #34, #334, .T. ) ;
#266 = EDGE_CURVE ( 'NONE', #66, #88, #32, .T. ) ;
#267 = VERTEX_POINT ( 'NONE', #332 ) ;
#268 = CARTESIAN_POINT ( 'NONE',  ( 0.000000000000000000, 72.80183088614322173, -269.9999999999999432 ) ) ;
#269 = SURFACE_STYLE_USAGE ( .BOTH. , #36 ) ;
#270 = CIRCLE ( 'NONE', #166, 689.9333303701070008 ) ;
#271 = PRODUCT_DEFINITION_SHAPE ( 'NONE', 'NONE',  #84 ) ;
#272 = DIRECTION ( 'NONE',  ( -0.000000000000000000, -1.000000000000000000, -0.000000000000000000 ) ) ;
#273 = EDGE_CURVE ( 'NONE', #198, #192, #288, .T. ) ;
#274 = CARTESIAN_POINT ( 'NONE',  ( 3.673940397442059493E-14, 0.000000000000000000, 300.0000000000000000 ) ) ;
#275 = PLANE ( 'NONE',  #19 ) ;
#276 = ORIENTED_EDGE ( 'NONE', *, *, #12, .T. ) ;
#277 = CARTESIAN_POINT ( 'NONE',  ( 3.673940397442059493E-14, 0.000000000000000000, 300.0000000000000000 ) ) ;
#278 = AXIS2_PLACEMENT_3D ( 'NONE', #38, #239, #341 ) ;
#279 = AXIS2_PLACEMENT_3D ( 'NONE', #123, #305, #190 ) ;
#280 = CARTESIAN_POINT ( 'NONE',  ( 0.000000000000000000, 0.000000000000000000, 0.000000000000000000 ) ) ;
#281 = ORIENTED_EDGE ( 'NONE', *, *, #152, .T. ) ;
#282 = DIRECTION ( 'NONE',  ( -0.000000000000000000, -1.000000000000000000, -0.000000000000000000 ) ) ;
#283 = ORIENTED_EDGE ( 'NONE', *, *, #193, .F. ) ;
#284 = DIRECTION ( 'NONE',  ( 0.000000000000000000, 0.000000000000000000, -1.000000000000000000 ) ) ;
#285 = EDGE_CURVE ( 'NONE', #364, #192, #114, .T. ) ;
#286 = CIRCLE ( 'NONE', #13, 269.9999999999999432 ) ;
#287 = ORIENTED_EDGE ( 'NONE', *, *, #250, .T. ) ;
#288 = CIRCLE ( 'NONE', #98, 300.0000000000000000 ) ;
#289 = SPHERICAL_SURFACE ( 'NONE', #361, 903.0000000000000000 ) ;
#290 = ORIENTED_EDGE ( 'NONE', *, *, #238, .F. ) ;
#291 = CARTESIAN_POINT ( 'NONE',  ( 0.000000000000000000, 72.80183088614322173, 0.000000000000000000 ) ) ;
#292 = DIRECTION ( 'NONE',  ( 0.000000000000000000, 0.000000000000000000, -1.000000000000000000 ) ) ;
#293 = EDGE_CURVE ( 'NONE', #108, #66, #307, .T. ) ;
#294 = ORIENTED_EDGE ( 'NONE', *, *, #141, .T. ) ;
#295 = CIRCLE ( 'NONE', #62, 873.0000000000000000 ) ;
#296 = ORIENTED_EDGE ( 'NONE', *, *, #46, .F. ) ;
#297 = DIRECTION ( 'NONE',  ( 0.000000000000000000, 0.000000000000000000, -1.000000000000000000 ) ) ;
#298 = DIRECTION ( 'NONE',  ( 1.000000000000000000, 0.000000000000000000, 0.000000000000000000 ) ) ;
#299 = CARTESIAN_POINT ( 'NONE',  ( 3.673940397442059493E-14, 51.29054249703202117, 300.0000000000000000 ) ) ;
#300 = SURFACE_STYLE_FILL_AREA ( #351 ) ;
#301 = CARTESIAN_POINT ( 'NONE',  ( 0.000000000000000000, 0.000000000000000000, -300.0000000000000000 ) ) ;
#302 = ADVANCED_FACE ( 'NONE', ( #373 ), #196, .F. ) ;
#303 = EDGE_CURVE ( 'NONE', #200, #168, #327, .T. ) ;
#304 = DIRECTION ( 'NONE',  ( 0.000000000000000000, 0.000000000000000000, -1.000000000000000000 ) ) ;
#305 = DIRECTION ( 'NONE',  ( 0.000000000000000000, 1.000000000000000000, 0.000000000000000000 ) ) ;
#306 = DIRECTION ( 'NONE',  ( 0.000000000000000000, 0.000000000000000000, -1.000000000000000000 ) ) ;
#307 = CIRCLE ( 'NONE', #144, 689.9333303701070008 ) ;
#308 =( GEOMETRIC_REPRESENTATION_CONTEXT ( 3 ) GLOBAL_UNCERTAINTY_ASSIGNED_CONTEXT ( ( #147 ) ) GLOBAL_UNIT_ASSIGNED_CONTEXT ( ( #148, #93, #150 ) ) REPRESENTATION_CONTEXT ( 'NONE', 'WORKASPACE' ) );
#309 = FILL_AREA_STYLE ('',( #251 ) ) ;
#310 = FACE_OUTER_BOUND ( 'NONE', #261, .T. ) ;
#311 = ORIENTED_EDGE ( 'NONE', *, *, #71, .F. ) ;
#312 = DIRECTION ( 'NONE',  ( 0.000000000000000000, 0.000000000000000000, -1.000000000000000000 ) ) ;
#313 = DIRECTION ( 'NONE',  ( -0.000000000000000000, -1.000000000000000000, -0.000000000000000000 ) ) ;
#314 = DIRECTION ( 'NONE',  ( -0.000000000000000000, -1.000000000000000000, -0.000000000000000000 ) ) ;
#315 = CARTESIAN_POINT ( 'NONE',  ( 0.000000000000000000, 0.000000000000000000, 0.000000000000000000 ) ) ;
#316 = ADVANCED_FACE ( 'NONE', ( #310 ), #355, .F. ) ;
#317 = DIRECTION ( 'NONE',  ( 0.000000000000000000, 0.000000000000000000, 1.000000000000000000 ) ) ;
#318 = SPHERICAL_SURFACE ( 'NONE', #344, 903.0000000000000000 ) ;
#319 = ORIENTED_EDGE ( 'NONE', *, *, #71, .T. ) ;
#320 = VECTOR ( 'NONE', #96, 1000.000000000000000 ) ;
#321 = AXIS2_PLACEMENT_3D ( 'NONE', #280, #173, #59 ) ;
#322 = EDGE_LOOP ( 'NONE', ( #40, #258, #85, #231 ) ) ;
#323 = DIRECTION ( 'NONE',  ( 1.000000000000000000, 0.000000000000000000, 0.000000000000000000 ) ) ;
#324 = DIRECTION ( 'NONE',  ( 0.000000000000000000, 0.000000000000000000, -1.000000000000000000 ) ) ;
#325 = ADVANCED_FACE ( 'NONE', ( #81 ), #289, .T. ) ;
#326 = CARTESIAN_POINT ( 'NONE',  ( 0.000000000000000000, 903.0000000000000000, 0.000000000000000000 ) ) ;
#327 = CIRCLE ( 'NONE', #35, 263.0000000000000000 ) ;
#328 = CYLINDRICAL_SURFACE ( 'NONE', #155, 689.9333303701070008 ) ;
#329 = ORIENTED_EDGE ( 'NONE', *, *, #254, .T. ) ;
#330 = CARTESIAN_POINT ( 'NONE',  ( 0.000000000000000000, 903.0000000000000000, 0.000000000000000000 ) ) ;
#331 = ORIENTED_EDGE ( 'NONE', *, *, #21, .F. ) ;
#332 = CARTESIAN_POINT ( 'NONE',  ( 8.449246446628249094E-14, 368.0972054247493475, 689.9333303701070008 ) ) ;
#333 = AXIS2_PLACEMENT_3D ( 'NONE', #33, #345, #297 ) ;
#334 = CIRCLE ( 'NONE', #264, 873.0000000000000000 ) ;
#335 = ORIENTED_EDGE ( 'NONE', *, *, #285, .F. ) ;
#336 = STYLED_ITEM ( 'NONE', ( #158 ), #370 ) ;
#337 = ADVANCED_FACE ( 'NONE', ( #365 ), #346, .T. ) ;
#338 = DIRECTION ( 'NONE',  ( 0.000000000000000000, 0.000000000000000000, -1.000000000000000000 ) ) ;
#339 = ORIENTED_EDGE ( 'NONE', *, *, #8, .T. ) ;
#340 = DIRECTION ( 'NONE',  ( -0.000000000000000000, -1.000000000000000000, -0.000000000000000000 ) ) ;
#341 = DIRECTION ( 'NONE',  ( 0.000000000000000000, 0.000000000000000000, -1.000000000000000000 ) ) ;
#342 = DIRECTION ( 'NONE',  ( 0.000000000000000000, 0.000000000000000000, -1.000000000000000000 ) ) ;
#343 = ADVANCED_FACE ( 'NONE', ( #203 ), #15, .F. ) ;
#344 = AXIS2_PLACEMENT_3D ( 'NONE', #60, #146, #111 ) ;
#345 = DIRECTION ( 'NONE',  ( 0.000000000000000000, -1.000000000000000000, -0.000000000000000000 ) ) ;
#346 = CYLINDRICAL_SURFACE ( 'NONE', #42, 300.0000000000000000 ) ;
#347 = DIRECTION ( 'NONE',  ( -0.000000000000000000, -1.000000000000000000, -0.000000000000000000 ) ) ;
#348 = ORIENTED_EDGE ( 'NONE', *, *, #273, .F. ) ;
#349 = DIRECTION ( 'NONE',  ( -0.000000000000000000, -1.000000000000000000, -0.000000000000000000 ) ) ;
#350 = EDGE_CURVE ( 'NONE', #34, #142, #224, .T. ) ;
#351 = FILL_AREA_STYLE ('',( #39 ) ) ;
#352 = CARTESIAN_POINT ( 'NONE',  ( 0.000000000000000000, 400.0000000000000000, 0.000000000000000000 ) ) ;
#353 = DIRECTION ( 'NONE',  ( 0.000000000000000000, 0.000000000000000000, 1.000000000000000000 ) ) ;
#354 = AXIS2_PLACEMENT_3D ( 'NONE', #97, #323, #306 ) ;
#355 = CONICAL_SURFACE ( 'NONE', #181, 269.9999999999999432, 0.1621092724555080467 ) ;
#356 =( GEOMETRIC_REPRESENTATION_CONTEXT ( 3 ) GLOBAL_UNCERTAINTY_ASSIGNED_CONTEXT ( ( #259 ) ) GLOBAL_UNIT_ASSIGNED_CONTEXT ( ( #95, #179, #211 ) ) REPRESENTATION_CONTEXT ( 'NONE', 'WORKASPACE' ) );
#357 = ADVANCED_FACE ( 'NONE', ( #199 ), #22, .F. ) ;
#358 = MANIFOLD_SOLID_BREP ( 'Revolve1', #131 ) ;
#359 = CARTESIAN_POINT ( 'NONE',  ( 0.000000000000000000, 400.0000000000002274, 0.000000000000000000 ) ) ;
#360 = DIRECTION ( 'NONE',  ( 0.000000000000000000, -0.000000000000000000, 1.000000000000000000 ) ) ;
#361 = AXIS2_PLACEMENT_3D ( 'NONE', #260, #53, #201 ) ;
#362 = MECHANICAL_DESIGN_GEOMETRIC_PRESENTATION_REPRESENTATION (  '', ( #336 ), #308 ) ;
#363 = CARTESIAN_POINT ( 'NONE',  ( 0.000000000000000000, 30.00000000000002842, 263.0000000000000000 ) ) ;
#364 = VERTEX_POINT ( 'NONE', #118 ) ;
#365 = FACE_OUTER_BOUND ( 'NONE', #374, .T. ) ;
#366 = ORIENTED_EDGE ( 'NONE', *, *, #220, .F. ) ;
#367 = CARTESIAN_POINT ( 'NONE',  ( 0.000000000000000000, 368.0972054247493475, 0.000000000000000000 ) ) ;
#368 = CIRCLE ( 'NONE', #225, 903.0000000000000000 ) ;
#369 = EDGE_LOOP ( 'NONE', ( #29, #177, #296, #283 ) ) ;
#370 = ADVANCED_BREP_SHAPE_REPRESENTATION ( 'BS2', ( #358, #145 ), #356 ) ;
#371 = DIRECTION ( 'NONE',  ( 0.000000000000000000, 1.000000000000000000, 0.000000000000000000 ) ) ;
#372 = EDGE_LOOP ( 'NONE', ( #149, #311, #117, #133 ) ) ;
#373 = FACE_OUTER_BOUND ( 'NONE', #204, .T. ) ;
#374 = EDGE_LOOP ( 'NONE', ( #102, #281, #79, #335 ) ) ;
ENDSEC;
END-ISO-10303-21;
